ISO-10303-21;
HEADER;
FILE_DESCRIPTION (( 'STEP AP203' ),
    '1' );
FILE_NAME ('45695.step',
    '2021-11-15T14:31:30',
    ( '' ),
    ( '' ),
    'SwSTEP 2.0',
    'SolidWorks 2019',
    '' );
FILE_SCHEMA (( 'CONFIG_CONTROL_DESIGN' ));
ENDSEC;

DATA;
#1 = DATE_AND_TIME ( #214, #38 ) ;
#2 = CONICAL_SURFACE ( 'NONE', #141, 1.199999999999996403, 0.7853981633974461696 ) ;
#3 = ORIENTED_EDGE ( 'NONE', *, *, #209, .T. ) ;
#4 = APPROVAL_ROLE ( '' ) ;
#5 = CLOSED_SHELL ( 'NONE', ( #181, #90, #30 ) ) ;
#6 =( NAMED_UNIT ( * ) SI_UNIT ( $, .STERADIAN. ) SOLID_ANGLE_UNIT ( ) );
#7 = DIRECTION ( 'NONE',  ( -4.275831445896958607E-31, -1.000000000000000000, -1.224646799147353207E-16 ) ) ;
#8 = FACE_OUTER_BOUND ( 'NONE', #213, .T. ) ;
#9 = APPROVAL ( #137, 'UNSPECIFIED' ) ;
#10 = DIRECTION ( 'NONE',  ( -4.275831445896958607E-31, -1.000000000000000000, -1.224646799147353207E-16 ) ) ;
#11 =( LENGTH_UNIT ( ) NAMED_UNIT ( * ) SI_UNIT ( .MILLI., .METRE. ) );
#12 = PERSON_AND_ORGANIZATION ( #110, #29 ) ;
#13 = DIRECTION ( 'NONE',  ( 3.491481338843133355E-15, -1.243677319851284845E-16, 1.000000000000000000 ) ) ;
#14 = CC_DESIGN_DATE_AND_TIME_ASSIGNMENT ( #79, #155, ( #61 ) ) ;
#15 = CALENDAR_DATE ( 2021, 15, 11 ) ;
#16 = AXIS2_PLACEMENT_3D ( 'NONE', #147, #238, #149 ) ;
#17 = DIRECTION ( 'NONE',  ( 3.491481338843133355E-15, -1.224646799147353207E-16, 1.000000000000000000 ) ) ;
#18 = DIRECTION ( 'NONE',  ( 0.0000000000000000000, 0.0000000000000000000, 1.000000000000000000 ) ) ;
#19 = ADVANCED_FACE ( 'NONE', ( #126, #174 ), #80, .T. ) ;
#20 = PERSON_AND_ORGANIZATION_ROLE ( 'creator' ) ;
#21 = ADVANCED_FACE ( 'NONE', ( #67 ), #123, .F. ) ;
#22 = DIRECTION ( 'NONE',  ( 0.0000000000000000000, -1.000000000000000000, 0.0000000000000000000 ) ) ;
#23 = AXIS2_PLACEMENT_3D ( 'NONE', #183, #109, #7 ) ;
#24 = ORIENTED_EDGE ( 'NONE', *, *, #209, .F. ) ;
#25 = CC_DESIGN_PERSON_AND_ORGANIZATION_ASSIGNMENT ( #75, #20, ( #173 ) ) ;
#26 = CARTESIAN_POINT ( 'NONE',  ( 4.189777606611758449E-15, -0.1999999999999978184, 1.199999999999999734 ) ) ;
#27 = AXIS2_PLACEMENT_3D ( 'NONE', #205, #74, #236 ) ;
#28 = VERTEX_POINT ( 'NONE', #186 ) ;
#29 = ORGANIZATION ( 'UNSPECIFIED', 'UNSPECIFIED', '' ) ;
#30 = ADVANCED_FACE ( 'NONE', ( #229 ), #138, .F. ) ;
#31 = DIRECTION ( 'NONE',  ( 0.0000000000000000000, -1.000000000000000000, 0.0000000000000000000 ) ) ;
#32 = CARTESIAN_POINT ( 'NONE',  ( 1.326762908760390423E-13, 1.199999999999991962, 38.00000000000000000 ) ) ;
#33 = CIRCLE ( 'NONE', #168, 0.2681483474218577245 ) ;
#34 = FACE_OUTER_BOUND ( 'NONE', #140, .T. ) ;
#35 = LOCAL_TIME ( 15, 31, 30.00000000000000000, #76 ) ;
#36 = PERSON_AND_ORGANIZATION_ROLE ( 'creator' ) ;
#37 = PERSON_AND_ORGANIZATION ( #110, #29 ) ;
#38 = LOCAL_TIME ( 15, 31, 30.00000000000000000, #165 ) ;
#39 = ORIENTED_EDGE ( 'NONE', *, *, #100, .F. ) ;
#40 = PRODUCT_RELATED_PRODUCT_CATEGORY ( 'detail', '', ( #198 ) ) ;
#41 = EDGE_LOOP ( 'NONE', ( #3 ) ) ;
#42 = CALENDAR_DATE ( 2021, 15, 11 ) ;
#43 = APPROVAL_STATUS ( 'not_yet_approved' ) ;
#44 = AXIS2_PLACEMENT_3D ( 'NONE', #175, #102, #177 ) ;
#45 = LOCAL_TIME ( 15, 31, 30.00000000000000000, #189 ) ;
#46 = APPROVAL ( #170, 'UNSPECIFIED' ) ;
#47 = EDGE_LOOP ( 'NONE', ( #207 ) ) ;
#48 = AXIS2_PLACEMENT_3D ( 'NONE', #63, #17, #10 ) ;
#49 = EDGE_LOOP ( 'NONE', ( #142 ) ) ;
#50 = DIRECTION ( 'NONE',  ( 0.0000000000000000000, 1.000000000000000000, 0.0000000000000000000 ) ) ;
#51 = VERTEX_POINT ( 'NONE', #222 ) ;
#52 = CARTESIAN_POINT ( 'NONE',  ( 2.204860355900263717E-14, -7.853786264202026616E-16, 6.314971045014440065 ) ) ;
#53 = PLANE ( 'NONE',  #23 ) ;
#54 = ORIENTED_EDGE ( 'NONE', *, *, #121, .F. ) ;
#55 = EDGE_CURVE ( 'NONE', #125, #125, #108, .T. ) ;
#56 = SHAPE_DEFINITION_REPRESENTATION ( #172, #196 ) ;
#57 = UNCERTAINTY_MEASURE_WITH_UNIT (LENGTH_MEASURE( 1.000000000000000082E-05 ), #11, 'distance_accuracy_value', 'NONE');
#58 = LOCAL_TIME ( 15, 31, 30.00000000000000000, #111 ) ;
#59 = DIRECTION ( 'NONE',  ( 3.491481338843133355E-15, -1.243677319851284845E-16, 1.000000000000000000 ) ) ;
#60 = PERSON_AND_ORGANIZATION ( #110, #29 ) ;
#61 = SECURITY_CLASSIFICATION ( '', '', #153 ) ;
#62 = CC_DESIGN_DATE_AND_TIME_ASSIGNMENT ( #1, #97, ( #118 ) ) ;
#63 = CARTESIAN_POINT ( 'NONE',  ( -8.551680453529350800E-31, 2.999525725151307090E-32, -2.449298628175645296E-16 ) ) ;
#64 = MANIFOLD_SOLID_BREP ( 'Corps-Déplacer/Copier1[1]', #184 ) ;
#65 = AXIS2_PLACEMENT_3D ( 'NONE', #87, #200, #161 ) ;
#66 = ORIENTED_EDGE ( 'NONE', *, *, #55, .F. ) ;
#67 = FACE_OUTER_BOUND ( 'NONE', #199, .T. ) ;
#68 = CC_DESIGN_PERSON_AND_ORGANIZATION_ASSIGNMENT ( #95, #78, ( #173 ) ) ;
#69 = CIRCLE ( 'NONE', #206, 0.1999999999999976519 ) ;
#70 = DIRECTION ( 'NONE',  ( -3.491481338843133355E-15, 1.224646799147353207E-16, -1.000000000000000000 ) ) ;
#71 = CARTESIAN_POINT ( 'NONE',  ( 4.189777606611758449E-15, -0.1999999999999978184, 1.199999999999999734 ) ) ;
#72 = FACE_OUTER_BOUND ( 'NONE', #160, .T. ) ;
#73 = PLANE ( 'NONE',  #27 ) ;
#74 = DIRECTION ( 'NONE',  ( -3.491481338843133355E-15, 1.224646799147353207E-16, -1.000000000000000000 ) ) ;
#75 = PERSON_AND_ORGANIZATION ( #110, #29 ) ;
#76 = COORDINATED_UNIVERSAL_TIME_OFFSET ( 1, 0, .AHEAD. ) ;
#77 = ADVANCED_FACE ( 'NONE', ( #154, #227 ), #2, .T. ) ;
#78 = PERSON_AND_ORGANIZATION_ROLE ( 'design_supplier' ) ;
#79 = DATE_AND_TIME ( #156, #122 ) ;
#80 = CONICAL_SURFACE ( 'NONE', #190, 2.499999999999995559, 0.2617993877991429130 ) ;
#81 = CARTESIAN_POINT ( 'NONE',  ( 3.507898930924417128E-14, -1.249525321010823751E-15, 10.04702185258341807 ) ) ;
#82 = CARTESIAN_POINT ( 'NONE',  ( 1.326762908760390423E-13, -4.653657836759941941E-15, 38.00000000000000000 ) ) ;
#83 = CIRCLE ( 'NONE', #240, 1.499999999999994671 ) ;
#84 = DIRECTION ( 'NONE',  ( -4.342276153803204744E-31, -1.000000000000000000, -1.243677319851284845E-16 ) ) ;
#85 = CC_DESIGN_PERSON_AND_ORGANIZATION_ASSIGNMENT ( #115, #36, ( #118 ) ) ;
#86 = FACE_OUTER_BOUND ( 'NONE', #215, .T. ) ;
#87 = CARTESIAN_POINT ( 'NONE',  ( 0.0000000000000000000, 0.0000000000000000000, 0.0000000000000000000 ) ) ;
#88 = DIRECTION ( 'NONE',  ( 0.0000000000000000000, 1.000000000000000000, 0.0000000000000000000 ) ) ;
#89 = DIRECTION ( 'NONE',  ( -4.342276153803205620E-31, -1.000000000000000000, -1.243677319851284845E-16 ) ) ;
#90 = ADVANCED_FACE ( 'NONE', ( #217, #139 ), #219, .T. ) ;
#91 = AXIS2_PLACEMENT_3D ( 'NONE', #237, #221, #84 ) ;
#92 = DATE_AND_TIME ( #42, #45 ) ;
#93 = DIRECTION ( 'NONE',  ( 1.000000000000000000, 0.0000000000000000000, 0.0000000000000000000 ) ) ;
#94 = ORIENTED_EDGE ( 'NONE', *, *, #231, .F. ) ;
#95 = PERSON_AND_ORGANIZATION ( #110, #29 ) ;
#96 = CARTESIAN_POINT ( 'NONE',  ( 1.326762908760390423E-13, -4.653657836759941941E-15, 38.00000000000000000 ) ) ;
#97 = DATE_TIME_ROLE ( 'creation_date' ) ;
#98 = CIRCLE ( 'NONE', #233, 1.199999999999996403 ) ;
#99 = CC_DESIGN_APPROVAL ( #9, ( #61 ) ) ;
#100 = EDGE_CURVE ( 'NONE', #203, #203, #33, .T. ) ;
#101 = EDGE_CURVE ( 'NONE', #148, #148, #69, .T. ) ;
#102 = DIRECTION ( 'NONE',  ( 3.491481338843133355E-15, -1.224646799147353207E-16, 1.000000000000000000 ) ) ;
#103 = VERTEX_POINT ( 'NONE', #106 ) ;
#104 = APPROVAL_PERSON_ORGANIZATION ( #60, #46, #4 ) ;
#105 = APPLICATION_PROTOCOL_DEFINITION ( 'international standard', 'config_control_design', 1994, #188 ) ;
#106 = CARTESIAN_POINT ( 'NONE',  ( -1.736910461521257769E-31, -0.1999999999999974853, -4.974709279405070725E-17 ) ) ;
#107 = CARTESIAN_POINT ( 'NONE',  ( 4.189777606611758449E-15, -1.492412783821541617E-16, 1.199999999999999734 ) ) ;
#108 = CIRCLE ( 'NONE', #112, 0.1999999999999976519 ) ;
#109 = DIRECTION ( 'NONE',  ( 3.491481338843133355E-15, -1.224646799147353207E-16, 1.000000000000000000 ) ) ;
#110 = PERSON ( 'UNSPECIFIED', 'UNSPECIFIED', 'UNSPECIFIED', ('UNSPECIFIED'), ('UNSPECIFIED'), ('UNSPECIFIED') ) ;
#111 = COORDINATED_UNIVERSAL_TIME_OFFSET ( 1, 0, .AHEAD. ) ;
#112 = AXIS2_PLACEMENT_3D ( 'NONE', #210, #59, #31 ) ;
#113 = APPROVAL_ROLE ( '' ) ;
#114 = ORIENTED_EDGE ( 'NONE', *, *, #101, .F. ) ;
#115 = PERSON_AND_ORGANIZATION ( #110, #29 ) ;
#116 = EDGE_LOOP ( 'NONE', ( #66 ) ) ;
#117 = APPROVAL_DATE_TIME ( #136, #9 ) ;
#118 = PRODUCT_DEFINITION ( 'UNKNOWN', '', #173, #208 ) ;
#119 = APPROVAL_PERSON_ORGANIZATION ( #167, #157, #150 ) ;
#120 = ORIENTED_EDGE ( 'NONE', *, *, #121, .T. ) ;
#121 = EDGE_CURVE ( 'NONE', #162, #162, #98, .T. ) ;
#122 = LOCAL_TIME ( 15, 31, 30.00000000000000000, #242 ) ;
#123 = PLANE ( 'NONE',  #44 ) ;
#124 = EDGE_LOOP ( 'NONE', ( #94 ) ) ;
#125 = VERTEX_POINT ( 'NONE', #71 ) ;
#126 = FACE_BOUND ( 'NONE', #159, .T. ) ;
#127 = TOROIDAL_SURFACE ( 'NONE', #16, 2.199999999999997069, 1.999999999999999556 ) ;
#128 = DIRECTION ( 'NONE',  ( 3.491481338843133355E-15, -1.243677319851284845E-16, 1.000000000000000000 ) ) ;
#129 = DIRECTION ( 'NONE',  ( -3.491481338843133355E-15, 1.243677319851284845E-16, -1.000000000000000000 ) ) ;
#130 = DIRECTION ( 'NONE',  ( 0.0000000000000000000, 1.000000000000000000, 0.0000000000000000000 ) ) ;
#131 = CIRCLE ( 'NONE', #194, 1.499999999999996669 ) ;
#132 = PERSON_AND_ORGANIZATION ( #110, #29 ) ;
#133 = CC_DESIGN_APPROVAL ( #157, ( #118 ) ) ;
#134 = DIRECTION ( 'NONE',  ( -3.491481338843133355E-15, 1.224646799147353207E-16, -1.000000000000000000 ) ) ;
#135 = APPLICATION_PROTOCOL_DEFINITION ( 'international standard', 'config_control_design', 1994, #235 ) ;
#136 = DATE_AND_TIME ( #216, #35 ) ;
#137 = APPROVAL_STATUS ( 'not_yet_approved' ) ;
#138 = PLANE ( 'NONE',  #48 ) ;
#139 = FACE_OUTER_BOUND ( 'NONE', #116, .T. ) ;
#140 = EDGE_LOOP ( 'NONE', ( #24 ) ) ;
#141 = AXIS2_PLACEMENT_3D ( 'NONE', #82, #70, #50 ) ;
#142 = ORIENTED_EDGE ( 'NONE', *, *, #231, .T. ) ;
#143 = MANIFOLD_SOLID_BREP ( 'Corps-Déplacer/Copier1[2]', #5 ) ;
#144 = ORIENTED_EDGE ( 'NONE', *, *, #55, .T. ) ;
#145 = CYLINDRICAL_SURFACE ( 'NONE', #65, 1.499999999999994671 ) ;
#146 =( GEOMETRIC_REPRESENTATION_CONTEXT ( 3 ) GLOBAL_UNCERTAINTY_ASSIGNED_CONTEXT ( ( #57 ) ) GLOBAL_UNIT_ASSIGNED_CONTEXT ( ( #11, #164, #6 ) ) REPRESENTATION_CONTEXT ( 'NONE', 'WORKASPACE' ) );
#147 = CARTESIAN_POINT ( 'NONE',  ( 4.189777606611757660E-15, 0.0000000000000000000, 1.199999999999999512 ) ) ;
#148 = VERTEX_POINT ( 'NONE', #26 ) ;
#149 = DIRECTION ( 'NONE',  ( -4.405503045239535826E-31, -1.000000000000000000, -1.243677319851284845E-16 ) ) ;
#150 = APPROVAL_ROLE ( '' ) ;
#151 = PERSON_AND_ORGANIZATION_ROLE ( 'classification_officer' ) ;
#152 = DIRECTION ( 'NONE',  ( 0.0000000000000000000, -1.000000000000000000, 0.0000000000000000000 ) ) ;
#153 = SECURITY_CLASSIFICATION_LEVEL ( 'unclassified' ) ;
#154 = FACE_OUTER_BOUND ( 'NONE', #47, .T. ) ;
#155 = DATE_TIME_ROLE ( 'classification_date' ) ;
#156 = CALENDAR_DATE ( 2021, 15, 11 ) ;
#157 = APPROVAL ( #43, 'UNSPECIFIED' ) ;
#158 = CC_DESIGN_SECURITY_CLASSIFICATION ( #61, ( #173 ) ) ;
#159 = EDGE_LOOP ( 'NONE', ( #180 ) ) ;
#160 = EDGE_LOOP ( 'NONE', ( #39 ) ) ;
#161 = DIRECTION ( 'NONE',  ( 4.275831445896958607E-31, 1.000000000000000000, 1.224646799147352961E-16 ) ) ;
#162 = VERTEX_POINT ( 'NONE', #32 ) ;
#163 = CARTESIAN_POINT ( 'NONE',  ( 1.316288464743861212E-13, -4.616918432785521081E-15, 37.69999999999999574 ) ) ;
#164 =( NAMED_UNIT ( * ) PLANE_ANGLE_UNIT ( ) SI_UNIT ( $, .RADIAN. ) );
#165 = COORDINATED_UNIVERSAL_TIME_OFFSET ( 1, 0, .AHEAD. ) ;
#166 = MECHANICAL_CONTEXT ( 'NONE', #188, 'mechanical' ) ;
#167 = PERSON_AND_ORGANIZATION ( #110, #29 ) ;
#168 = AXIS2_PLACEMENT_3D ( 'NONE', #243, #228, #152 ) ;
#169 = ORIENTED_EDGE ( 'NONE', *, *, #204, .T. ) ;
#170 = APPROVAL_STATUS ( 'not_yet_approved' ) ;
#171 = EDGE_LOOP ( 'NONE', ( #120 ) ) ;
#172 = PRODUCT_DEFINITION_SHAPE ( 'NONE', 'NONE',  #118 ) ;
#173 = PRODUCT_DEFINITION_FORMATION_WITH_SPECIFIED_SOURCE ( 'ANY', '', #198, .NOT_KNOWN. ) ;
#174 = FACE_OUTER_BOUND ( 'NONE', #41, .T. ) ;
#175 = CARTESIAN_POINT ( 'NONE',  ( 4.189777606611758449E-15, 1.124819836996387322E-32, 1.199999999999999734 ) ) ;
#176 = CC_DESIGN_PERSON_AND_ORGANIZATION_ASSIGNMENT ( #132, #226, ( #198 ) ) ;
#177 = DIRECTION ( 'NONE',  ( -4.275831445896958607E-31, -1.000000000000000000, -1.224646799147353207E-16 ) ) ;
#178 = EDGE_LOOP ( 'NONE', ( #169 ) ) ;
#179 = FACE_OUTER_BOUND ( 'NONE', #178, .T. ) ;
#180 = ORIENTED_EDGE ( 'NONE', *, *, #100, .T. ) ;
#181 = ADVANCED_FACE ( 'NONE', ( #86 ), #53, .T. ) ;
#182 = DIRECTION ( 'NONE',  ( 0.0000000000000000000, -1.000000000000000000, 0.0000000000000000000 ) ) ;
#183 = CARTESIAN_POINT ( 'NONE',  ( 4.189777606611758449E-15, 1.124819836996387322E-32, 1.199999999999999734 ) ) ;
#184 = CLOSED_SHELL ( 'NONE', ( #220, #77, #225, #19, #234, #21 ) ) ;
#185 = AXIS2_PLACEMENT_3D ( 'NONE', #191, #18, #93 ) ;
#186 = CARTESIAN_POINT ( 'NONE',  ( 1.316288464743861212E-13, 1.499999999999992228, 37.69999999999999574 ) ) ;
#187 = CARTESIAN_POINT ( 'NONE',  ( -6.413677916074933265E-31, 0.0000000000000000000, -1.836950363939232727E-16 ) ) ;
#188 = APPLICATION_CONTEXT ( 'configuration controlled 3d designs of mechanical parts and assemblies' ) ;
#189 = COORDINATED_UNIVERSAL_TIME_OFFSET ( 1, 0, .AHEAD. ) ;
#190 = AXIS2_PLACEMENT_3D ( 'NONE', #81, #232, #197 ) ;
#191 = CARTESIAN_POINT ( 'NONE',  ( 0.0000000000000000000, 0.0000000000000000000, 0.0000000000000000000 ) ) ;
#192 = DATE_AND_TIME ( #15, #58 ) ;
#193 = APPROVAL_DATE_TIME ( #192, #46 ) ;
#194 = AXIS2_PLACEMENT_3D ( 'NONE', #163, #239, #130 ) ;
#195 = ORIENTED_EDGE ( 'NONE', *, *, #101, .T. ) ;
#196 = ADVANCED_BREP_SHAPE_REPRESENTATION ( '45695', ( #64, #143, #185 ), #146 ) ;
#197 = DIRECTION ( 'NONE',  ( 0.0000000000000000000, -1.000000000000000000, 0.0000000000000000000 ) ) ;
#198 = PRODUCT ( '45695', '45695', '', ( #166 ) ) ;
#199 = EDGE_LOOP ( 'NONE', ( #114 ) ) ;
#200 = DIRECTION ( 'NONE',  ( -3.491481338843133355E-15, 1.224646799147353207E-16, -1.000000000000000000 ) ) ;
#201 = CIRCLE ( 'NONE', #91, 0.1999999999999974853 ) ;
#202 = CARTESIAN_POINT ( 'NONE',  ( 5.997101338837014829E-15, -0.2681483474218579466, 1.717638090205028112 ) ) ;
#203 = VERTEX_POINT ( 'NONE', #202 ) ;
#204 = EDGE_CURVE ( 'NONE', #28, #28, #131, .T. ) ;
#205 = CARTESIAN_POINT ( 'NONE',  ( 1.326762908760390423E-13, 8.998558695971051224E-33, 38.00000000000000000 ) ) ;
#206 = AXIS2_PLACEMENT_3D ( 'NONE', #107, #128, #22 ) ;
#207 = ORIENTED_EDGE ( 'NONE', *, *, #204, .F. ) ;
#208 = DESIGN_CONTEXT ( 'detailed design', #235, 'design' ) ;
#209 = EDGE_CURVE ( 'NONE', #51, #51, #83, .T. ) ;
#210 = CARTESIAN_POINT ( 'NONE',  ( 4.189777606611758449E-15, -1.492412783821541617E-16, 1.199999999999999734 ) ) ;
#211 = APPROVAL_DATE_TIME ( #92, #157 ) ;
#212 = APPROVAL_PERSON_ORGANIZATION ( #37, #9, #113 ) ;
#213 = EDGE_LOOP ( 'NONE', ( #54 ) ) ;
#214 = CALENDAR_DATE ( 2021, 15, 11 ) ;
#215 = EDGE_LOOP ( 'NONE', ( #144 ) ) ;
#216 = CALENDAR_DATE ( 2021, 15, 11 ) ;
#217 = FACE_OUTER_BOUND ( 'NONE', #49, .T. ) ;
#218 = CC_DESIGN_PERSON_AND_ORGANIZATION_ASSIGNMENT ( #12, #151, ( #61 ) ) ;
#219 = CYLINDRICAL_SURFACE ( 'NONE', #230, 0.1999999999999975686 ) ;
#220 = ADVANCED_FACE ( 'NONE', ( #179, #34 ), #145, .T. ) ;
#221 = DIRECTION ( 'NONE',  ( 3.491481338843133355E-15, -1.243677319851284845E-16, 1.000000000000000000 ) ) ;
#222 = CARTESIAN_POINT ( 'NONE',  ( 2.204860355900263717E-14, -1.499999999999995559, 6.314971045014440065 ) ) ;
#223 = EDGE_LOOP ( 'NONE', ( #195 ) ) ;
#224 = FACE_OUTER_BOUND ( 'NONE', #223, .T. ) ;
#225 = ADVANCED_FACE ( 'NONE', ( #8 ), #73, .F. ) ;
#226 = PERSON_AND_ORGANIZATION_ROLE ( 'design_owner' ) ;
#227 = FACE_BOUND ( 'NONE', #171, .T. ) ;
#228 = DIRECTION ( 'NONE',  ( 3.491481338843133355E-15, -1.243677319851284845E-16, 1.000000000000000000 ) ) ;
#229 = FACE_OUTER_BOUND ( 'NONE', #124, .T. ) ;
#230 = AXIS2_PLACEMENT_3D ( 'NONE', #187, #13, #89 ) ;
#231 = EDGE_CURVE ( 'NONE', #103, #103, #201, .T. ) ;
#232 = DIRECTION ( 'NONE',  ( 3.491481338843133355E-15, -1.243677319851284845E-16, 1.000000000000000000 ) ) ;
#233 = AXIS2_PLACEMENT_3D ( 'NONE', #96, #134, #88 ) ;
#234 = ADVANCED_FACE ( 'NONE', ( #224, #72 ), #127, .F. ) ;
#235 = APPLICATION_CONTEXT ( 'configuration controlled 3d designs of mechanical parts and assemblies' ) ;
#236 = DIRECTION ( 'NONE',  ( 4.275831445896958607E-31, 1.000000000000000000, 1.224646799147353207E-16 ) ) ;
#237 = CARTESIAN_POINT ( 'NONE',  ( -8.684552307606277897E-32, -1.975226850141296743E-32, -2.487354639702532589E-17 ) ) ;
#238 = DIRECTION ( 'NONE',  ( 3.491481338843133355E-15, -1.243677319851284845E-16, 1.000000000000000000 ) ) ;
#239 = DIRECTION ( 'NONE',  ( -3.491481338843133355E-15, 1.224646799147353207E-16, -1.000000000000000000 ) ) ;
#240 = AXIS2_PLACEMENT_3D ( 'NONE', #52, #129, #182 ) ;
#241 = CC_DESIGN_APPROVAL ( #46, ( #173 ) ) ;
#242 = COORDINATED_UNIVERSAL_TIME_OFFSET ( 1, 0, .AHEAD. ) ;
#243 = CARTESIAN_POINT ( 'NONE',  ( 5.997101338837014829E-15, -2.136187536500669386E-16, 1.717638090205028112 ) ) ;
ENDSEC;
END-ISO-10303-21;
