ISO-10303-21;
HEADER;
FILE_DESCRIPTION (( 'STEP AP203' ),
    '1' );
FILE_NAME ('4568.step',
    '2021-09-03T07:22:35',
    ( '' ),
    ( '' ),
    'SwSTEP 2.0',
    'SolidWorks 2019',
    '' );
FILE_SCHEMA (( 'CONFIG_CONTROL_DESIGN' ));
ENDSEC;

DATA;
#1 = ADVANCED_FACE ( 'NONE', ( #322 ), #91, .F. ) ;
#2 = PERSON_AND_ORGANIZATION_ROLE ( 'creator' ) ;
#3 = ORIENTED_EDGE ( 'NONE', *, *, #60, .T. ) ;
#4 = CARTESIAN_POINT ( 'NONE',  ( 0.0000000000000000000, 0.0000000000000000000, 0.0000000000000000000 ) ) ;
#5 = DIRECTION ( 'NONE',  ( -3.491481338843133355E-15, 1.224646799147353454E-16, -1.000000000000000000 ) ) ;
#6 = EDGE_CURVE ( 'NONE', #128, #21, #189, .T. ) ;
#7 = ORIENTED_EDGE ( 'NONE', *, *, #269, .T. ) ;
#8 = AXIS2_PLACEMENT_3D ( 'NONE', #4, #5, #45 ) ;
#9 = APPLICATION_CONTEXT ( 'configuration controlled 3d designs of mechanical parts and assemblies' ) ;
#10 = DIRECTION ( 'NONE',  ( -4.275831445896959482E-31, -1.000000000000000000, -1.224646799147353454E-16 ) ) ;
#11 = CONICAL_SURFACE ( 'NONE', #275, 1.774999999999994138, 1.029744258676649649 ) ;
#12 = DIRECTION ( 'NONE',  ( 1.903218546456022717E-15, 0.8571673007021097801, 0.5150380749100585964 ) ) ;
#13 = DIRECTION ( 'NONE',  ( -3.491481338843133355E-15, 1.224646799147353454E-16, -1.000000000000000000 ) ) ;
#14 = ORIENTED_EDGE ( 'NONE', *, *, #186, .T. ) ;
#15 = CC_DESIGN_PERSON_AND_ORGANIZATION_ASSIGNMENT ( #133, #2, ( #234 ) ) ;
#16 = EDGE_LOOP ( 'NONE', ( #161, #77 ) ) ;
#17 = DIRECTION ( 'NONE',  ( -4.340123818337447489E-31, -1.000000000000000000, -1.221636250687896424E-16 ) ) ;
#18 = ORIENTED_EDGE ( 'NONE', *, *, #6, .F. ) ;
#19 = DIRECTION ( 'NONE',  ( 0.0000000000000000000, 1.000000000000000000, 0.0000000000000000000 ) ) ;
#20 = EDGE_LOOP ( 'NONE', ( #222, #315, #48 ) ) ;
#21 = VERTEX_POINT ( 'NONE', #51 ) ;
#22 = CARTESIAN_POINT ( 'NONE',  ( 5.237222008264700033E-14, 1.774999999999994138, 15.00000000000000000 ) ) ;
#23 = CARTESIAN_POINT ( 'NONE',  ( 7.589600816467094564E-31, 1.774999999999997913, 2.173748068486549964E-16 ) ) ;
#24 = APPLICATION_PROTOCOL_DEFINITION ( 'international standard', 'config_control_design', 1994, #9 ) ;
#25 = VERTEX_POINT ( 'NONE', #229 ) ;
#26 = ORIENTED_EDGE ( 'NONE', *, *, #122, .T. ) ;
#27 = AXIS2_PLACEMENT_3D ( 'NONE', #61, #297, #105 ) ;
#28 = ORGANIZATION ( 'UNSPECIFIED', 'UNSPECIFIED', '' ) ;
#29 = FACE_OUTER_BOUND ( 'NONE', #32, .T. ) ;
#30 = ORIENTED_EDGE ( 'NONE', *, *, #237, .F. ) ;
#31 = DATE_AND_TIME ( #167, #97 ) ;
#32 = EDGE_LOOP ( 'NONE', ( #254, #18 ) ) ;
#33 = APPLICATION_CONTEXT ( 'configuration controlled 3d designs of mechanical parts and assemblies' ) ;
#34 = CARTESIAN_POINT ( 'NONE',  ( 3.723761208480344827E-15, -1.306119610040803369E-16, 1.066527598773927554 ) ) ;
#35 = AXIS2_PLACEMENT_3D ( 'NONE', #95, #13, #177 ) ;
#36 = APPROVAL ( #50, 'UNSPECIFIED' ) ;
#37 = PERSON_AND_ORGANIZATION ( #90, #28 ) ;
#38 = CARTESIAN_POINT ( 'NONE',  ( 5.237222008264700033E-14, -1.836970198721029983E-15, 15.00000000000000000 ) ) ;
#39 = DIRECTION ( 'NONE',  ( -3.491481338843133355E-15, 1.224646799147353454E-16, -1.000000000000000000 ) ) ;
#40 = EDGE_LOOP ( 'NONE', ( #225, #258, #336, #331 ) ) ;
#41 = CARTESIAN_POINT ( 'NONE',  ( 0.0000000000000000000, 0.0000000000000000000, 0.0000000000000000000 ) ) ;
#42 = DIRECTION ( 'NONE',  ( -3.491481338843133355E-15, 1.224646799147353454E-16, -1.000000000000000000 ) ) ;
#43 = CARTESIAN_POINT ( 'NONE',  ( 5.237222008264700033E-14, -1.836970198721029983E-15, 15.00000000000000000 ) ) ;
#44 = VECTOR ( 'NONE', #58, 999.9999999999998863 ) ;
#45 = DIRECTION ( 'NONE',  ( 4.275831445896959482E-31, 1.000000000000000000, 1.224646799147353454E-16 ) ) ;
#46 = CARTESIAN_POINT ( 'NONE',  ( 5.237222008264700033E-14, 1.774999999999994138, 15.00000000000000000 ) ) ;
#47 = DIRECTION ( 'NONE',  ( 3.491481338843133355E-15, -1.224646799147353454E-16, 1.000000000000000000 ) ) ;
#48 = ORIENTED_EDGE ( 'NONE', *, *, #176, .T. ) ;
#49 = DIRECTION ( 'NONE',  ( 4.275831445896959482E-31, 1.000000000000000000, 1.224646799147353454E-16 ) ) ;
#50 = APPROVAL_STATUS ( 'not_yet_approved' ) ;
#51 = CARTESIAN_POINT ( 'NONE',  ( 1.815570296198429345E-13, 1.374999999999994005, 52.00000000000000000 ) ) ;
#52 = VECTOR ( 'NONE', #42, 1000.000000000000000 ) ;
#53 = LOCAL_TIME ( 9, 22, 35.00000000000000000, #242 ) ;
#54 = DATE_AND_TIME ( #299, #87 ) ;
#55 =( NAMED_UNIT ( * ) SI_UNIT ( $, .STERADIAN. ) SOLID_ANGLE_UNIT ( ) );
#56 = ORIENTED_EDGE ( 'NONE', *, *, #148, .T. ) ;
#57 = EDGE_CURVE ( 'NONE', #232, #285, #277, .T. ) ;
#58 = DIRECTION ( 'NONE',  ( -2.382254525458730880E-15, -0.7071067811865434649, -0.7071067811865516806 ) ) ;
#59 = CIRCLE ( 'NONE', #329, 1.774999999999995692 ) ;
#60 = EDGE_CURVE ( 'NONE', #178, #159, #204, .T. ) ;
#61 = CARTESIAN_POINT ( 'NONE',  ( 3.723761208480344827E-15, -1.306119610040803369E-16, 1.066527598773927554 ) ) ;
#62 = CARTESIAN_POINT ( 'NONE',  ( 5.237222008264700033E-14, 1.331036807112393564E-32, 15.00000000000000000 ) ) ;
#63 = CALENDAR_DATE ( 2021, 3, 9 ) ;
#64 = PERSON_AND_ORGANIZATION_ROLE ( 'creator' ) ;
#65 = LINE ( 'NONE', #317, #194 ) ;
#66 = APPROVAL_ROLE ( '' ) ;
#67 = EDGE_CURVE ( 'NONE', #128, #25, #183, .T. ) ;
#68 = SECURITY_CLASSIFICATION_LEVEL ( 'unclassified' ) ;
#69 = DATE_TIME_ROLE ( 'classification_date' ) ;
#70 = ADVANCED_FACE ( 'NONE', ( #29 ), #307, .F. ) ;
#71 = PRODUCT_DEFINITION_SHAPE ( 'NONE', 'NONE',  #207 ) ;
#72 = DIRECTION ( 'NONE',  ( -3.491481338843133355E-15, 1.224646799147353454E-16, -1.000000000000000000 ) ) ;
#73 = CIRCLE ( 'NONE', #78, 1.775000000000000355 ) ;
#74 = CC_DESIGN_APPROVAL ( #36, ( #217 ) ) ;
#75 = CC_DESIGN_PERSON_AND_ORGANIZATION_ASSIGNMENT ( #109, #98, ( #234 ) ) ;
#76 = ORIENTED_EDGE ( 'NONE', *, *, #165, .T. ) ;
#77 = ORIENTED_EDGE ( 'NONE', *, *, #292, .T. ) ;
#78 = AXIS2_PLACEMENT_3D ( 'NONE', #288, #162, #170 ) ;
#79 = DIRECTION ( 'NONE',  ( 4.340123818337447489E-31, 1.000000000000000000, 1.221636250687896424E-16 ) ) ;
#80 = FACE_OUTER_BOUND ( 'NONE', #40, .T. ) ;
#81 = EDGE_CURVE ( 'NONE', #286, #285, #320, .T. ) ;
#82 = DIRECTION ( 'NONE',  ( 4.275831445896959482E-31, 1.000000000000000000, 1.224646799147353454E-16 ) ) ;
#83 = AXIS2_PLACEMENT_3D ( 'NONE', #251, #193, #116 ) ;
#84 = PRODUCT_RELATED_PRODUCT_CATEGORY ( 'detail', '', ( #274 ) ) ;
#85 = DIRECTION ( 'NONE',  ( 3.491481338843133355E-15, -1.224646799147353454E-16, 1.000000000000000000 ) ) ;
#86 = APPROVAL_DATE_TIME ( #88, #280 ) ;
#87 = LOCAL_TIME ( 9, 22, 35.00000000000000000, #202 ) ;
#88 = DATE_AND_TIME ( #166, #147 ) ;
#89 = CARTESIAN_POINT ( 'NONE',  ( 1.815570296198429345E-13, -6.368163355566237959E-15, 52.00000000000000000 ) ) ;
#90 = PERSON ( 'UNSPECIFIED', 'UNSPECIFIED', 'UNSPECIFIED', ('UNSPECIFIED'), ('UNSPECIFIED'), ('UNSPECIFIED') ) ;
#91 = PLANE ( 'NONE',  #124 ) ;
#92 = FACE_OUTER_BOUND ( 'NONE', #239, .T. ) ;
#93 = PERSON_AND_ORGANIZATION_ROLE ( 'classification_officer' ) ;
#94 = CARTESIAN_POINT ( 'NONE',  ( 1.815570296198429345E-13, -6.368163355566237959E-15, 52.00000000000000000 ) ) ;
#95 = CARTESIAN_POINT ( 'NONE',  ( 1.815570296198429345E-13, -6.368163355566237959E-15, 52.00000000000000000 ) ) ;
#96 = VECTOR ( 'NONE', #209, 1000.000000000000000 ) ;
#97 = LOCAL_TIME ( 9, 22, 35.00000000000000000, #111 ) ;
#98 = PERSON_AND_ORGANIZATION_ROLE ( 'design_supplier' ) ;
#99 = ORIENTED_EDGE ( 'NONE', *, *, #176, .F. ) ;
#100 = VECTOR ( 'NONE', #12, 999.9999999999998863 ) ;
#101 = APPROVAL ( #138, 'UNSPECIFIED' ) ;
#102 =( GEOMETRIC_REPRESENTATION_CONTEXT ( 3 ) GLOBAL_UNCERTAINTY_ASSIGNED_CONTEXT ( ( #233 ) ) GLOBAL_UNIT_ASSIGNED_CONTEXT ( ( #282, #179, #55 ) ) REPRESENTATION_CONTEXT ( 'NONE', 'WORKASPACE' ) );
#103 = PERSON_AND_ORGANIZATION ( #90, #28 ) ;
#104 = ADVANCED_FACE ( 'NONE', ( #108 ), #265, .T. ) ;
#105 = DIRECTION ( 'NONE',  ( 4.340123818337447489E-31, 1.000000000000000000, 1.221636250687896424E-16 ) ) ;
#106 = ADVANCED_FACE ( 'NONE', ( #263 ), #11, .T. ) ;
#107 = VERTEX_POINT ( 'NONE', #46 ) ;
#108 = FACE_OUTER_BOUND ( 'NONE', #330, .T. ) ;
#109 = PERSON_AND_ORGANIZATION ( #90, #28 ) ;
#110 = CIRCLE ( 'NONE', #157, 1.774999999999994138 ) ;
#111 = COORDINATED_UNIVERSAL_TIME_OFFSET ( 1, 0, .AHEAD. ) ;
#112 = DIRECTION ( 'NONE',  ( -3.491481338843133355E-15, 1.224646799147353454E-16, -1.000000000000000000 ) ) ;
#113 = ORIENTED_EDGE ( 'NONE', *, *, #60, .F. ) ;
#114 = DIRECTION ( 'NONE',  ( -3.491481338843133355E-15, 1.224646799147353454E-16, -1.000000000000000000 ) ) ;
#115 = CYLINDRICAL_SURFACE ( 'NONE', #136, 1.774999999999997913 ) ;
#116 = DIRECTION ( 'NONE',  ( 0.0000000000000000000, 1.000000000000000000, 0.0000000000000000000 ) ) ;
#117 = CLOSED_SHELL ( 'NONE', ( #247, #208, #1, #268, #309, #70 ) ) ;
#118 = COORDINATED_UNIVERSAL_TIME_OFFSET ( 1, 0, .AHEAD. ) ;
#119 = VERTEX_POINT ( 'NONE', #220 ) ;
#120 = ORIENTED_EDGE ( 'NONE', *, *, #186, .F. ) ;
#121 = ADVANCED_FACE ( 'NONE', ( #92 ), #173, .T. ) ;
#122 = EDGE_CURVE ( 'NONE', #232, #119, #144, .T. ) ;
#123 = ORIENTED_EDGE ( 'NONE', *, *, #269, .F. ) ;
#124 = AXIS2_PLACEMENT_3D ( 'NONE', #298, #47, #10 ) ;
#125 = LOCAL_TIME ( 9, 22, 35.00000000000000000, #118 ) ;
#126 = CARTESIAN_POINT ( 'NONE',  ( 1.817254185547257048E-13, -1.375000000000006661, 52.00000000000000000 ) ) ;
#127 = APPROVAL_STATUS ( 'not_yet_approved' ) ;
#128 = VERTEX_POINT ( 'NONE', #325 ) ;
#129 = CARTESIAN_POINT ( 'NONE',  ( 0.0000000000000000000, 0.0000000000000000000, 0.0000000000000000000 ) ) ;
#130 = DIRECTION ( 'NONE',  ( 1.000000000000000000, 0.0000000000000000000, 0.0000000000000000000 ) ) ;
#131 = ORIENTED_EDGE ( 'NONE', *, *, #148, .F. ) ;
#132 = CARTESIAN_POINT ( 'NONE',  ( 1.815570296198429345E-13, 1.031084850580018484E-32, 52.00000000000000000 ) ) ;
#133 = PERSON_AND_ORGANIZATION ( #90, #28 ) ;
#134 = ORIENTED_EDGE ( 'NONE', *, *, #292, .F. ) ;
#135 = ORIENTED_EDGE ( 'NONE', *, *, #67, .T. ) ;
#136 = AXIS2_PLACEMENT_3D ( 'NONE', #41, #164, #140 ) ;
#137 = CARTESIAN_POINT ( 'NONE',  ( 2.173748068486538378E-16, -1.774999999999994804, -2.173748068486553662E-16 ) ) ;
#138 = APPROVAL_STATUS ( 'not_yet_approved' ) ;
#139 = EDGE_LOOP ( 'NONE', ( #231, #210, #3, #134 ) ) ;
#140 = DIRECTION ( 'NONE',  ( 4.275831445896959482E-31, 1.000000000000000000, 1.224646799147353454E-16 ) ) ;
#141 = CC_DESIGN_DATE_AND_TIME_ASSIGNMENT ( #261, #264, ( #207 ) ) ;
#142 = DIRECTION ( 'NONE',  ( 0.0000000000000000000, 1.000000000000000000, 0.0000000000000000000 ) ) ;
#143 = CIRCLE ( 'NONE', #151, 1.774999999999995692 ) ;
#144 = LINE ( 'NONE', #248, #100 ) ;
#145 = APPROVAL_ROLE ( '' ) ;
#146 = VECTOR ( 'NONE', #279, 1000.000000000000000 ) ;
#147 = LOCAL_TIME ( 9, 22, 35.00000000000000000, #313 ) ;
#148 = EDGE_CURVE ( 'NONE', #178, #25, #278, .T. ) ;
#149 = ORIENTED_EDGE ( 'NONE', *, *, #6, .T. ) ;
#150 = DIRECTION ( 'NONE',  ( -3.491481338843133355E-15, 1.224646799147353454E-16, -1.000000000000000000 ) ) ;
#151 = AXIS2_PLACEMENT_3D ( 'NONE', #43, #187, #321 ) ;
#152 = DIRECTION ( 'NONE',  ( 0.0000000000000000000, 1.000000000000000000, 0.0000000000000000000 ) ) ;
#153 = ORIENTED_EDGE ( 'NONE', *, *, #67, .F. ) ;
#154 = CARTESIAN_POINT ( 'NONE',  ( 1.815570296198429345E-13, 1.374999999999994005, 52.00000000000000000 ) ) ;
#155 = CYLINDRICAL_SURFACE ( 'NONE', #284, 1.774999999999994804 ) ;
#156 = PERSON_AND_ORGANIZATION ( #90, #28 ) ;
#157 = AXIS2_PLACEMENT_3D ( 'NONE', #311, #332, #79 ) ;
#158 = MECHANICAL_CONTEXT ( 'NONE', #9, 'mechanical' ) ;
#159 = VERTEX_POINT ( 'NONE', #22 ) ;
#160 = DIRECTION ( 'NONE',  ( -4.275831445896959482E-31, -1.000000000000000000, -1.224646799147353454E-16 ) ) ;
#161 = ORIENTED_EDGE ( 'NONE', *, *, #305, .T. ) ;
#162 = DIRECTION ( 'NONE',  ( -3.491481338843133355E-15, 1.224646799147353454E-16, -1.000000000000000000 ) ) ;
#163 = VECTOR ( 'NONE', #184, 1000.000000000000000 ) ;
#164 = DIRECTION ( 'NONE',  ( -3.491481338843133355E-15, 1.224646799147353454E-16, -1.000000000000000000 ) ) ;
#165 = EDGE_CURVE ( 'NONE', #107, #119, #182, .T. ) ;
#166 = CALENDAR_DATE ( 2021, 3, 9 ) ;
#167 = CALENDAR_DATE ( 2021, 3, 9 ) ;
#168 = CC_DESIGN_DATE_AND_TIME_ASSIGNMENT ( #54, #69, ( #217 ) ) ;
#169 = SHAPE_DEFINITION_REPRESENTATION ( #71, #293 ) ;
#170 = DIRECTION ( 'NONE',  ( 0.0000000000000000000, 1.000000000000000000, 0.0000000000000000000 ) ) ;
#171 = AXIS2_PLACEMENT_3D ( 'NONE', #327, #150, #199 ) ;
#172 = MANIFOLD_SOLID_BREP ( 'Corps-Déplacer/Copier1[2]', #270 ) ;
#173 = CYLINDRICAL_SURFACE ( 'NONE', #308, 1.774999999999994804 ) ;
#174 = AXIS2_PLACEMENT_3D ( 'NONE', #132, #39, #295 ) ;
#175 = CC_DESIGN_SECURITY_CLASSIFICATION ( #217, ( #234 ) ) ;
#176 = EDGE_CURVE ( 'NONE', #285, #119, #318, .T. ) ;
#177 = DIRECTION ( 'NONE',  ( 0.0000000000000000000, 1.000000000000000000, 0.0000000000000000000 ) ) ;
#178 = VERTEX_POINT ( 'NONE', #180 ) ;
#179 =( NAMED_UNIT ( * ) PLANE_ANGLE_UNIT ( ) SI_UNIT ( $, .RADIAN. ) );
#180 = CARTESIAN_POINT ( 'NONE',  ( 1.801604370843056559E-13, 1.774999999999994138, 51.59999999999999432 ) ) ;
#181 = CIRCLE ( 'NONE', #83, 1.774999999999995692 ) ;
#182 = LINE ( 'NONE', #333, #52 ) ;
#183 = LINE ( 'NONE', #126, #44 ) ;
#184 = DIRECTION ( 'NONE',  ( -3.491481338843133355E-15, 1.224646799147353454E-16, -1.000000000000000000 ) ) ;
#185 = CIRCLE ( 'NONE', #171, 1.774999999999995692 ) ;
#186 = EDGE_CURVE ( 'NONE', #21, #178, #238, .T. ) ;
#187 = DIRECTION ( 'NONE',  ( -3.491481338843133355E-15, 1.224646799147353454E-16, -1.000000000000000000 ) ) ;
#188 = EDGE_CURVE ( 'NONE', #119, #285, #110, .T. ) ;
#189 = CIRCLE ( 'NONE', #303, 1.375000000000000444 ) ;
#190 = CC_DESIGN_APPROVAL ( #280, ( #207 ) ) ;
#191 = DIRECTION ( 'NONE',  ( -3.491481338843133355E-15, 1.224646799147353454E-16, -1.000000000000000000 ) ) ;
#192 = FACE_OUTER_BOUND ( 'NONE', #20, .T. ) ;
#193 = DIRECTION ( 'NONE',  ( -3.491481338843133355E-15, 1.224646799147353454E-16, -1.000000000000000000 ) ) ;
#194 = VECTOR ( 'NONE', #191, 1000.000000000000000 ) ;
#195 = DIRECTION ( 'NONE',  ( 3.491481338843133355E-15, -1.224646799147353454E-16, 1.000000000000000000 ) ) ;
#196 = DIRECTION ( 'NONE',  ( -3.491481338843133355E-15, 1.224646799147353454E-16, -1.000000000000000000 ) ) ;
#197 = ADVANCED_FACE ( 'NONE', ( #80 ), #155, .T. ) ;
#198 = CC_DESIGN_PERSON_AND_ORGANIZATION_ASSIGNMENT ( #103, #206, ( #274 ) ) ;
#199 = DIRECTION ( 'NONE',  ( 0.0000000000000000000, 1.000000000000000000, 0.0000000000000000000 ) ) ;
#200 = APPROVAL_PERSON_ORGANIZATION ( #37, #101, #66 ) ;
#201 = DIRECTION ( 'NONE',  ( -3.491481338843133355E-15, 1.224646799147353454E-16, -1.000000000000000000 ) ) ;
#202 = COORDINATED_UNIVERSAL_TIME_OFFSET ( 1, 0, .AHEAD. ) ;
#203 = CARTESIAN_POINT ( 'NONE',  ( 1.801604370843056559E-13, -6.319177483600343742E-15, 51.59999999999999432 ) ) ;
#204 = LINE ( 'NONE', #23, #163 ) ;
#205 = AXIS2_PLACEMENT_3D ( 'NONE', #89, #241, #142 ) ;
#206 = PERSON_AND_ORGANIZATION_ROLE ( 'design_owner' ) ;
#207 = PRODUCT_DEFINITION ( 'UNKNOWN', '', #234, #226 ) ;
#208 = ADVANCED_FACE ( 'NONE', ( #216 ), #115, .T. ) ;
#209 = DIRECTION ( 'NONE',  ( 1.798245827342160317E-15, -0.8571673007021098911, 0.5150380749100582634 ) ) ;
#210 = ORIENTED_EDGE ( 'NONE', *, *, #237, .T. ) ;
#211 = AXIS2_PLACEMENT_3D ( 'NONE', #301, #72, #19 ) ;
#212 = EDGE_LOOP ( 'NONE', ( #56, #262, #228, #113 ) ) ;
#213 = CARTESIAN_POINT ( 'NONE',  ( 3.723761208480344038E-15, -1.774999999999994360, 1.066527598773927332 ) ) ;
#214 = CC_DESIGN_PERSON_AND_ORGANIZATION_ASSIGNMENT ( #221, #93, ( #217 ) ) ;
#215 = EDGE_LOOP ( 'NONE', ( #260, #135, #131, #120 ) ) ;
#216 = FACE_OUTER_BOUND ( 'NONE', #212, .T. ) ;
#217 = SECURITY_CLASSIFICATION ( '', '', #68 ) ;
#218 = ORIENTED_EDGE ( 'NONE', *, *, #57, .F. ) ;
#219 = ORIENTED_EDGE ( 'NONE', *, *, #224, .F. ) ;
#220 = CARTESIAN_POINT ( 'NONE',  ( 3.941136015328999873E-15, 1.774999999999994138, 1.066527598773927776 ) ) ;
#221 = PERSON_AND_ORGANIZATION ( #90, #28 ) ;
#222 = ORIENTED_EDGE ( 'NONE', *, *, #122, .F. ) ;
#223 = CIRCLE ( 'NONE', #211, 1.375000000000000444 ) ;
#224 = EDGE_CURVE ( 'NONE', #107, #286, #143, .T. ) ;
#225 = ORIENTED_EDGE ( 'NONE', *, *, #224, .T. ) ;
#226 = DESIGN_CONTEXT ( 'detailed design', #33, 'design' ) ;
#227 = AXIS2_PLACEMENT_3D ( 'NONE', #62, #85, #160 ) ;
#228 = ORIENTED_EDGE ( 'NONE', *, *, #305, .F. ) ;
#229 = CARTESIAN_POINT ( 'NONE',  ( 1.164837033903248120E-13, -1.775000000000006573, 51.59999999999999432 ) ) ;
#230 = CARTESIAN_POINT ( 'NONE',  ( 3.723761208480344038E-15, -1.774999999999994360, 1.066527598773927332 ) ) ;
#231 = ORIENTED_EDGE ( 'NONE', *, *, #245, .F. ) ;
#232 = VERTEX_POINT ( 'NONE', #294 ) ;
#233 = UNCERTAINTY_MEASURE_WITH_UNIT (LENGTH_MEASURE( 1.000000000000000082E-05 ), #282, 'distance_accuracy_value', 'NONE');
#234 = PRODUCT_DEFINITION_FORMATION_WITH_SPECIFIED_SOURCE ( 'ANY', '', #274, .NOT_KNOWN. ) ;
#235 = APPROVAL_ROLE ( '' ) ;
#236 = EDGE_LOOP ( 'NONE', ( #153, #149, #14, #30 ) ) ;
#237 = EDGE_CURVE ( 'NONE', #25, #178, #73, .T. ) ;
#238 = LINE ( 'NONE', #154, #146 ) ;
#239 = EDGE_LOOP ( 'NONE', ( #337, #7, #76, #99 ) ) ;
#240 = FACE_OUTER_BOUND ( 'NONE', #215, .T. ) ;
#241 = DIRECTION ( 'NONE',  ( -3.491481338843133355E-15, 1.224646799147353454E-16, -1.000000000000000000 ) ) ;
#242 = COORDINATED_UNIVERSAL_TIME_OFFSET ( 1, 0, .AHEAD. ) ;
#243 = APPROVAL_PERSON_ORGANIZATION ( #156, #280, #235 ) ;
#244 = DIRECTION ( 'NONE',  ( -4.340123818337447489E-31, -1.000000000000000000, -1.221636250687896424E-16 ) ) ;
#245 = EDGE_CURVE ( 'NONE', #25, #250, #65, .T. ) ;
#246 = FACE_OUTER_BOUND ( 'NONE', #139, .T. ) ;
#247 = ADVANCED_FACE ( 'NONE', ( #240 ), #323, .T. ) ;
#248 = CARTESIAN_POINT ( 'NONE',  ( 3.941136015328999873E-15, 1.774999999999994138, 1.066527598773927776 ) ) ;
#249 = APPROVAL_DATE_TIME ( #302, #36 ) ;
#250 = VERTEX_POINT ( 'NONE', #316 ) ;
#251 = CARTESIAN_POINT ( 'NONE',  ( 5.237222008264700033E-14, -1.836970198721029983E-15, 15.00000000000000000 ) ) ;
#252 = CONICAL_SURFACE ( 'NONE', #35, 1.375000000000000444, 0.7853981633974426169 ) ;
#253 = DIRECTION ( 'NONE',  ( 0.0000000000000000000, 0.0000000000000000000, 1.000000000000000000 ) ) ;
#254 = ORIENTED_EDGE ( 'NONE', *, *, #328, .F. ) ;
#255 = ORIENTED_EDGE ( 'NONE', *, *, #188, .T. ) ;
#256 = CARTESIAN_POINT ( 'NONE',  ( 0.0000000000000000000, 0.0000000000000000000, 0.0000000000000000000 ) ) ;
#257 = ADVANCED_FACE ( 'NONE', ( #192 ), #314, .T. ) ;
#258 = ORIENTED_EDGE ( 'NONE', *, *, #81, .T. ) ;
#259 = AXIS2_PLACEMENT_3D ( 'NONE', #203, #306, #152 ) ;
#260 = ORIENTED_EDGE ( 'NONE', *, *, #328, .T. ) ;
#261 = DATE_AND_TIME ( #63, #53 ) ;
#262 = ORIENTED_EDGE ( 'NONE', *, *, #245, .T. ) ;
#263 = FACE_OUTER_BOUND ( 'NONE', #334, .T. ) ;
#264 = DATE_TIME_ROLE ( 'creation_date' ) ;
#265 = PLANE ( 'NONE',  #227 ) ;
#266 = DIRECTION ( 'NONE',  ( 3.491481338843133355E-15, -1.224646799147353454E-16, 1.000000000000000000 ) ) ;
#267 = APPROVAL_DATE_TIME ( #31, #101 ) ;
#268 = ADVANCED_FACE ( 'NONE', ( #246 ), #271, .T. ) ;
#269 = EDGE_CURVE ( 'NONE', #286, #107, #59, .T. ) ;
#270 = CLOSED_SHELL ( 'NONE', ( #197, #106, #257, #121, #104 ) ) ;
#271 = CYLINDRICAL_SURFACE ( 'NONE', #8, 1.774999999999997913 ) ;
#272 = CARTESIAN_POINT ( 'NONE',  ( 0.0000000000000000000, 0.0000000000000000000, 0.0000000000000000000 ) ) ;
#273 = PERSON_AND_ORGANIZATION ( #90, #28 ) ;
#274 = PRODUCT ( '4568', '4568', '', ( #158 ) ) ;
#275 = AXIS2_PLACEMENT_3D ( 'NONE', #34, #195, #17 ) ;
#276 = APPROVAL_PERSON_ORGANIZATION ( #273, #36, #145 ) ;
#277 = LINE ( 'NONE', #230, #96 ) ;
#278 = CIRCLE ( 'NONE', #259, 1.775000000000000355 ) ;
#279 = DIRECTION ( 'NONE',  ( -2.468850131082279149E-15, 0.7071067811865435759, -0.7071067811865514585 ) ) ;
#280 = APPROVAL ( #127, 'UNSPECIFIED' ) ;
#281 = CC_DESIGN_PERSON_AND_ORGANIZATION_ASSIGNMENT ( #287, #64, ( #207 ) ) ;
#282 =( LENGTH_UNIT ( ) NAMED_UNIT ( * ) SI_UNIT ( .MILLI., .METRE. ) );
#283 = MANIFOLD_SOLID_BREP ( 'Corps-Déplacer/Copier1[1]', #117 ) ;
#284 = AXIS2_PLACEMENT_3D ( 'NONE', #129, #312, #82 ) ;
#285 = VERTEX_POINT ( 'NONE', #213 ) ;
#286 = VERTEX_POINT ( 'NONE', #326 ) ;
#287 = PERSON_AND_ORGANIZATION ( #90, #28 ) ;
#288 = CARTESIAN_POINT ( 'NONE',  ( 1.801604370843056559E-13, -6.319177483600343742E-15, 51.59999999999999432 ) ) ;
#289 = VECTOR ( 'NONE', #112, 1000.000000000000000 ) ;
#290 = AXIS2_PLACEMENT_3D ( 'NONE', #296, #266, #244 ) ;
#291 = DIRECTION ( 'NONE',  ( 0.0000000000000000000, 1.000000000000000000, 0.0000000000000000000 ) ) ;
#292 = EDGE_CURVE ( 'NONE', #250, #159, #185, .T. ) ;
#293 = ADVANCED_BREP_SHAPE_REPRESENTATION ( '4568', ( #283, #172, #335 ), #102 ) ;
#294 = CARTESIAN_POINT ( 'NONE',  ( 0.0000000000000000000, 0.0000000000000000000, 0.0000000000000000000 ) ) ;
#295 = DIRECTION ( 'NONE',  ( 4.275831445896959482E-31, 1.000000000000000000, 1.224646799147353454E-16 ) ) ;
#296 = CARTESIAN_POINT ( 'NONE',  ( 3.723761208480344827E-15, -1.306119610040803369E-16, 1.066527598773927554 ) ) ;
#297 = DIRECTION ( 'NONE',  ( -3.491481338843133355E-15, 1.224646799147353454E-16, -1.000000000000000000 ) ) ;
#298 = CARTESIAN_POINT ( 'NONE',  ( 5.237222008264700033E-14, 1.331036807112393564E-32, 15.00000000000000000 ) ) ;
#299 = CALENDAR_DATE ( 2021, 3, 9 ) ;
#300 = DIRECTION ( 'NONE',  ( 0.0000000000000000000, 1.000000000000000000, 0.0000000000000000000 ) ) ;
#301 = CARTESIAN_POINT ( 'NONE',  ( 1.815570296198429345E-13, -6.368163355566237959E-15, 52.00000000000000000 ) ) ;
#302 = DATE_AND_TIME ( #304, #125 ) ;
#303 = AXIS2_PLACEMENT_3D ( 'NONE', #94, #196, #300 ) ;
#304 = CALENDAR_DATE ( 2021, 3, 9 ) ;
#305 = EDGE_CURVE ( 'NONE', #159, #250, #181, .T. ) ;
#306 = DIRECTION ( 'NONE',  ( -3.491481338843133355E-15, 1.224646799147353454E-16, -1.000000000000000000 ) ) ;
#307 = PLANE ( 'NONE',  #174 ) ;
#308 = AXIS2_PLACEMENT_3D ( 'NONE', #272, #201, #49 ) ;
#309 = ADVANCED_FACE ( 'NONE', ( #324 ), #252, .T. ) ;
#310 = APPLICATION_PROTOCOL_DEFINITION ( 'international standard', 'config_control_design', 1994, #33 ) ;
#311 = CARTESIAN_POINT ( 'NONE',  ( 3.723761208480344827E-15, -1.306119610040803369E-16, 1.066527598773927554 ) ) ;
#312 = DIRECTION ( 'NONE',  ( -3.491481338843133355E-15, 1.224646799147353454E-16, -1.000000000000000000 ) ) ;
#313 = COORDINATED_UNIVERSAL_TIME_OFFSET ( 1, 0, .AHEAD. ) ;
#314 = CONICAL_SURFACE ( 'NONE', #290, 1.774999999999994138, 1.029744258676649649 ) ;
#315 = ORIENTED_EDGE ( 'NONE', *, *, #57, .T. ) ;
#316 = CARTESIAN_POINT ( 'NONE',  ( 1.164837033903249382E-13, -1.774999999999997469, 15.00000000000000000 ) ) ;
#317 = CARTESIAN_POINT ( 'NONE',  ( 2.173748068486541829E-16, -1.774999999999997913, -2.173748068486557113E-16 ) ) ;
#318 = CIRCLE ( 'NONE', #27, 1.774999999999994138 ) ;
#319 = CC_DESIGN_APPROVAL ( #101, ( #234 ) ) ;
#320 = LINE ( 'NONE', #137, #289 ) ;
#321 = DIRECTION ( 'NONE',  ( 0.0000000000000000000, 1.000000000000000000, 0.0000000000000000000 ) ) ;
#322 = FACE_OUTER_BOUND ( 'NONE', #16, .T. ) ;
#323 = CONICAL_SURFACE ( 'NONE', #205, 1.375000000000000444, 0.7853981633974426169 ) ;
#324 = FACE_OUTER_BOUND ( 'NONE', #236, .T. ) ;
#325 = CARTESIAN_POINT ( 'NONE',  ( 1.810516152229399822E-13, -1.375000000000006661, 52.00000000000000000 ) ) ;
#326 = CARTESIAN_POINT ( 'NONE',  ( 2.826536545241230711E-14, -1.774999999999997247, 15.00000000000000000 ) ) ;
#327 = CARTESIAN_POINT ( 'NONE',  ( 5.237222008264700033E-14, -1.836970198721029983E-15, 15.00000000000000000 ) ) ;
#328 = EDGE_CURVE ( 'NONE', #21, #128, #223, .T. ) ;
#329 = AXIS2_PLACEMENT_3D ( 'NONE', #38, #114, #291 ) ;
#330 = EDGE_LOOP ( 'NONE', ( #219, #123 ) ) ;
#331 = ORIENTED_EDGE ( 'NONE', *, *, #165, .F. ) ;
#332 = DIRECTION ( 'NONE',  ( -3.491481338843133355E-15, 1.224646799147353454E-16, -1.000000000000000000 ) ) ;
#333 = CARTESIAN_POINT ( 'NONE',  ( 7.589600816467081427E-31, 1.774999999999994804, 2.173748068486546020E-16 ) ) ;
#334 = EDGE_LOOP ( 'NONE', ( #218, #26, #255 ) ) ;
#335 = AXIS2_PLACEMENT_3D ( 'NONE', #256, #253, #130 ) ;
#336 = ORIENTED_EDGE ( 'NONE', *, *, #188, .F. ) ;
#337 = ORIENTED_EDGE ( 'NONE', *, *, #81, .F. ) ;
ENDSEC;
END-ISO-10303-21;
