ISO-10303-21;
HEADER;
FILE_DESCRIPTION (( 'STEP AP203' ),
    '1' );
FILE_NAME ('4567.step',
    '2021-09-03T07:22:35',
    ( '' ),
    ( '' ),
    'SwSTEP 2.0',
    'SolidWorks 2019',
    '' );
FILE_SCHEMA (( 'CONFIG_CONTROL_DESIGN' ));
ENDSEC;

DATA;
#1 = EDGE_CURVE ( 'NONE', #122, #27, #7, .T. ) ;
#2 = VERTEX_POINT ( 'NONE', #187 ) ;
#3 = DATE_AND_TIME ( #125, #246 ) ;
#4 = AXIS2_PLACEMENT_3D ( 'NONE', #337, #108, #116 ) ;
#5 = EDGE_CURVE ( 'NONE', #27, #2, #288, .T. ) ;
#6 = DIRECTION ( 'NONE',  ( 3.491481338843133355E-15, -1.224646799147353207E-16, 1.000000000000000000 ) ) ;
#7 = CIRCLE ( 'NONE', #72, 1.275000000000000577 ) ;
#8 = LOCAL_TIME ( 9, 22, 35.00000000000000000, #196 ) ;
#9 = PERSON_AND_ORGANIZATION ( #169, #18 ) ;
#10 = LINE ( 'NONE', #43, #11 ) ;
#11 = VECTOR ( 'NONE', #19, 1000.000000000000000 ) ;
#12 =( NAMED_UNIT ( * ) SI_UNIT ( $, .STERADIAN. ) SOLID_ANGLE_UNIT ( ) );
#13 = CARTESIAN_POINT ( 'NONE',  ( 1.710825856033135470E-13, 9.560968614469256037E-33, 49.00000000000000000 ) ) ;
#14 = PRODUCT_RELATED_PRODUCT_CATEGORY ( 'detail', '', ( #311 ) ) ;
#15 = CARTESIAN_POINT ( 'NONE',  ( 4.888073874380386697E-14, 1.674999999999994493, 14.00000000000000000 ) ) ;
#16 = CARTESIAN_POINT ( 'NONE',  ( 0.0000000000000000000, 0.0000000000000000000, 0.0000000000000000000 ) ) ;
#17 = DIRECTION ( 'NONE',  ( -3.491481338843133355E-15, 1.224646799147353207E-16, -1.000000000000000000 ) ) ;
#18 = ORGANIZATION ( 'UNSPECIFIED', 'UNSPECIFIED', '' ) ;
#19 = DIRECTION ( 'NONE',  ( 1.798245827342159528E-15, -0.8571673007021100021, 0.5150380749100580413 ) ) ;
#20 = ORIENTED_EDGE ( 'NONE', *, *, #289, .F. ) ;
#21 = CALENDAR_DATE ( 2021, 3, 9 ) ;
#22 = CARTESIAN_POINT ( 'NONE',  ( 3.513971844622297192E-15, -1.232535406658222547E-16, 1.006441536871170994 ) ) ;
#23 = VERTEX_POINT ( 'NONE', #309 ) ;
#24 = CARTESIAN_POINT ( 'NONE',  ( 4.888073874380386697E-14, -1.714505518806294638E-15, 14.00000000000000000 ) ) ;
#25 = APPROVAL_PERSON_ORGANIZATION ( #267, #221, #154 ) ;
#26 = DIRECTION ( 'NONE',  ( 0.0000000000000000000, 1.000000000000000000, 0.0000000000000000000 ) ) ;
#27 = VERTEX_POINT ( 'NONE', #88 ) ;
#28 = CARTESIAN_POINT ( 'NONE',  ( 3.513971844622297192E-15, -1.232535406658222547E-16, 1.006441536871170994 ) ) ;
#29 = DIRECTION ( 'NONE',  ( 0.0000000000000000000, 1.000000000000000000, 0.0000000000000000000 ) ) ;
#30 = FACE_OUTER_BOUND ( 'NONE', #271, .T. ) ;
#31 = VECTOR ( 'NONE', #94, 1000.000000000000000 ) ;
#32 = VERTEX_POINT ( 'NONE', #120 ) ;
#33 = DIRECTION ( 'NONE',  ( -3.491481338843133355E-15, 1.224646799147353207E-16, -1.000000000000000000 ) ) ;
#34 = FACE_OUTER_BOUND ( 'NONE', #177, .T. ) ;
#35 = APPROVAL_DATE_TIME ( #211, #176 ) ;
#36 = DIRECTION ( 'NONE',  ( 1.000000000000000000, 0.0000000000000000000, 0.0000000000000000000 ) ) ;
#37 =( GEOMETRIC_REPRESENTATION_CONTEXT ( 3 ) GLOBAL_UNCERTAINTY_ASSIGNED_CONTEXT ( ( #50 ) ) GLOBAL_UNIT_ASSIGNED_CONTEXT ( ( #170, #41, #12 ) ) REPRESENTATION_CONTEXT ( 'NONE', 'WORKASPACE' ) );
#38 = PRODUCT_DEFINITION_SHAPE ( 'NONE', 'NONE',  #279 ) ;
#39 = LINE ( 'NONE', #248, #286 ) ;
#40 = PLANE ( 'NONE',  #301 ) ;
#41 =( NAMED_UNIT ( * ) PLANE_ANGLE_UNIT ( ) SI_UNIT ( $, .RADIAN. ) );
#42 = ORIENTED_EDGE ( 'NONE', *, *, #255, .F. ) ;
#43 = CARTESIAN_POINT ( 'NONE',  ( 3.513971844622296403E-15, -1.674999999999994937, 1.006441536871170772 ) ) ;
#44 = CIRCLE ( 'NONE', #188, 1.675000000000000266 ) ;
#45 = EDGE_LOOP ( 'NONE', ( #233, #317, #262, #247 ) ) ;
#46 = APPROVAL_STATUS ( 'not_yet_approved' ) ;
#47 = APPLICATION_CONTEXT ( 'configuration controlled 3d designs of mechanical parts and assemblies' ) ;
#48 = EDGE_LOOP ( 'NONE', ( #152, #168, #165, #110 ) ) ;
#49 = PERSON_AND_ORGANIZATION ( #169, #18 ) ;
#50 = UNCERTAINTY_MEASURE_WITH_UNIT (LENGTH_MEASURE( 1.000000000000000082E-05 ), #170, 'distance_accuracy_value', 'NONE');
#51 = EDGE_LOOP ( 'NONE', ( #216, #166, #220 ) ) ;
#52 = DIRECTION ( 'NONE',  ( -3.491481338843133355E-15, 1.224646799147353207E-16, -1.000000000000000000 ) ) ;
#53 = EDGE_CURVE ( 'NONE', #27, #122, #268, .T. ) ;
#54 = DIRECTION ( 'NONE',  ( -3.491481338843133355E-15, 1.224646799147353207E-16, -1.000000000000000000 ) ) ;
#55 = CONICAL_SURFACE ( 'NONE', #178, 1.275000000000000577, 0.7853981633974510546 ) ;
#56 = ADVANCED_FACE ( 'NONE', ( #334 ), #83, .T. ) ;
#57 = MANIFOLD_SOLID_BREP ( 'Corps-Déplacer/Copier1[2]', #78 ) ;
#58 = MECHANICAL_CONTEXT ( 'NONE', #47, 'mechanical' ) ;
#59 = MANIFOLD_SOLID_BREP ( 'Corps-Déplacer/Copier1[1]', #244 ) ;
#60 = LINE ( 'NONE', #160, #142 ) ;
#61 = ORIENTED_EDGE ( 'NONE', *, *, #1, .F. ) ;
#62 = ORIENTED_EDGE ( 'NONE', *, *, #273, .T. ) ;
#63 = AXIS2_PLACEMENT_3D ( 'NONE', #319, #143, #296 ) ;
#64 = LOCAL_TIME ( 9, 22, 35.00000000000000000, #150 ) ;
#65 = ORIENTED_EDGE ( 'NONE', *, *, #289, .T. ) ;
#66 = ADVANCED_FACE ( 'NONE', ( #219 ), #327, .T. ) ;
#67 = LOCAL_TIME ( 9, 22, 35.00000000000000000, #91 ) ;
#68 = ORIENTED_EDGE ( 'NONE', *, *, #303, .F. ) ;
#69 = ORIENTED_EDGE ( 'NONE', *, *, #235, .F. ) ;
#70 = FACE_OUTER_BOUND ( 'NONE', #198, .T. ) ;
#71 = CC_DESIGN_PERSON_AND_ORGANIZATION_ASSIGNMENT ( #49, #199, ( #311 ) ) ;
#72 = AXIS2_PLACEMENT_3D ( 'NONE', #264, #320, #113 ) ;
#73 = CC_DESIGN_APPROVAL ( #106, ( #111 ) ) ;
#74 = CC_DESIGN_DATE_AND_TIME_ASSIGNMENT ( #332, #167, ( #259 ) ) ;
#75 = DATE_AND_TIME ( #21, #212 ) ;
#76 = CARTESIAN_POINT ( 'NONE',  ( 2.051283388571807273E-16, -1.674999999999998046, -2.051283388571821324E-16 ) ) ;
#77 = CARTESIAN_POINT ( 'NONE',  ( 1.710825856033135470E-13, -6.000769315822030937E-15, 49.00000000000000000 ) ) ;
#78 = CLOSED_SHELL ( 'NONE', ( #66, #82, #126, #147, #56 ) ) ;
#79 = AXIS2_PLACEMENT_3D ( 'NONE', #227, #181, #26 ) ;
#80 = FACE_OUTER_BOUND ( 'NONE', #51, .T. ) ;
#81 = CC_DESIGN_PERSON_AND_ORGANIZATION_ASSIGNMENT ( #99, #162, ( #279 ) ) ;
#82 = ADVANCED_FACE ( 'NONE', ( #70 ), #190, .T. ) ;
#83 = PLANE ( 'NONE',  #63 ) ;
#84 = AXIS2_PLACEMENT_3D ( 'NONE', #16, #197, #328 ) ;
#85 = CARTESIAN_POINT ( 'NONE',  ( 7.162017671877397652E-31, 1.674999999999998046, 2.051283388571814175E-16 ) ) ;
#86 = EDGE_LOOP ( 'NONE', ( #69, #93, #89, #158 ) ) ;
#87 = DESIGN_CONTEXT ( 'detailed design', #189, 'design' ) ;
#88 = CARTESIAN_POINT ( 'NONE',  ( 1.710825856033135470E-13, 1.274999999999994360, 49.00000000000000000 ) ) ;
#89 = ORIENTED_EDGE ( 'NONE', *, *, #303, .T. ) ;
#90 = DIRECTION ( 'NONE',  ( 1.903218546456021928E-15, 0.8571673007021098911, 0.5150380749100583744 ) ) ;
#91 = COORDINATED_UNIVERSAL_TIME_OFFSET ( 1, 0, .AHEAD. ) ;
#92 = CIRCLE ( 'NONE', #278, 1.674999999999994715 ) ;
#93 = ORIENTED_EDGE ( 'NONE', *, *, #272, .T. ) ;
#94 = DIRECTION ( 'NONE',  ( -2.382254525458709186E-15, -0.7071067811865493491, -0.7071067811865456854 ) ) ;
#95 = CARTESIAN_POINT ( 'NONE',  ( 0.0000000000000000000, 0.0000000000000000000, 0.0000000000000000000 ) ) ;
#96 = PERSON_AND_ORGANIZATION_ROLE ( 'classification_officer' ) ;
#97 = AXIS2_PLACEMENT_3D ( 'NONE', #275, #144, #100 ) ;
#98 = ORIENTED_EDGE ( 'NONE', *, *, #272, .F. ) ;
#99 = PERSON_AND_ORGANIZATION ( #169, #18 ) ;
#100 = DIRECTION ( 'NONE',  ( -4.599235688088935701E-31, -1.000000000000000000, -1.294569758191651100E-16 ) ) ;
#101 = PERSON_AND_ORGANIZATION_ROLE ( 'creator' ) ;
#102 = CONICAL_SURFACE ( 'NONE', #195, 1.674999999999994715, 1.029744258676649871 ) ;
#103 = CC_DESIGN_PERSON_AND_ORGANIZATION_ASSIGNMENT ( #203, #223, ( #111 ) ) ;
#104 = CIRCLE ( 'NONE', #224, 1.675000000000000266 ) ;
#105 = ORIENTED_EDGE ( 'NONE', *, *, #242, .F. ) ;
#106 = APPROVAL ( #318, 'UNSPECIFIED' ) ;
#107 = ADVANCED_FACE ( 'NONE', ( #254 ), #156, .T. ) ;
#108 = DIRECTION ( 'NONE',  ( -3.491481338843133355E-15, 1.224646799147353207E-16, -1.000000000000000000 ) ) ;
#109 = FACE_OUTER_BOUND ( 'NONE', #114, .T. ) ;
#110 = ORIENTED_EDGE ( 'NONE', *, *, #257, .F. ) ;
#111 = PRODUCT_DEFINITION_FORMATION_WITH_SPECIFIED_SOURCE ( 'ANY', '', #311, .NOT_KNOWN. ) ;
#112 = DIRECTION ( 'NONE',  ( -3.491481338843133355E-15, 1.224646799147353207E-16, -1.000000000000000000 ) ) ;
#113 = DIRECTION ( 'NONE',  ( 0.0000000000000000000, 1.000000000000000000, 0.0000000000000000000 ) ) ;
#114 = EDGE_LOOP ( 'NONE', ( #42, #276, #240, #98 ) ) ;
#115 = DIRECTION ( 'NONE',  ( 0.0000000000000000000, 1.000000000000000000, 0.0000000000000000000 ) ) ;
#116 = DIRECTION ( 'NONE',  ( 0.0000000000000000000, 1.000000000000000000, 0.0000000000000000000 ) ) ;
#117 = CARTESIAN_POINT ( 'NONE',  ( 1.710825856033135470E-13, 1.274999999999994360, 49.00000000000000000 ) ) ;
#118 = SHAPE_DEFINITION_REPRESENTATION ( #38, #307 ) ;
#119 = AXIS2_PLACEMENT_3D ( 'NONE', #261, #52, #282 ) ;
#120 = CARTESIAN_POINT ( 'NONE',  ( 1.094884942446472257E-13, -1.674999999999997824, 14.00000000000000000 ) ) ;
#121 = AXIS2_PLACEMENT_3D ( 'NONE', #283, #316, #29 ) ;
#122 = VERTEX_POINT ( 'NONE', #315 ) ;
#123 = DIRECTION ( 'NONE',  ( 0.0000000000000000000, 1.000000000000000000, 0.0000000000000000000 ) ) ;
#124 = FACE_OUTER_BOUND ( 'NONE', #304, .T. ) ;
#125 = CALENDAR_DATE ( 2021, 3, 9 ) ;
#126 = ADVANCED_FACE ( 'NONE', ( #80 ), #102, .T. ) ;
#127 = ADVANCED_FACE ( 'NONE', ( #124 ), #40, .F. ) ;
#128 = DIRECTION ( 'NONE',  ( -3.491481338843133355E-15, 1.224646799147353207E-16, -1.000000000000000000 ) ) ;
#129 = CIRCLE ( 'NONE', #336, 1.674999999999996048 ) ;
#130 = CARTESIAN_POINT ( 'NONE',  ( 1.696859930677762937E-13, -5.951783443856137509E-15, 48.60000000000000142 ) ) ;
#131 = CYLINDRICAL_SURFACE ( 'NONE', #119, 1.674999999999995604 ) ;
#132 = APPLICATION_PROTOCOL_DEFINITION ( 'international standard', 'config_control_design', 1994, #47 ) ;
#133 = DIRECTION ( 'NONE',  ( -3.491481338843133355E-15, 1.224646799147353207E-16, -1.000000000000000000 ) ) ;
#134 = ORIENTED_EDGE ( 'NONE', *, *, #313, .F. ) ;
#135 = CARTESIAN_POINT ( 'NONE',  ( 2.640248363307024583E-14, -1.674999999999997824, 14.00000000000000000 ) ) ;
#136 = DIRECTION ( 'NONE',  ( 3.491481338843133355E-15, -1.224646799147353207E-16, 1.000000000000000000 ) ) ;
#137 = VECTOR ( 'NONE', #298, 1000.000000000000000 ) ;
#138 = CARTESIAN_POINT ( 'NONE',  ( 1.710825856033135470E-13, -6.000769315822030937E-15, 49.00000000000000000 ) ) ;
#139 = ORIENTED_EDGE ( 'NONE', *, *, #205, .T. ) ;
#140 = PLANE ( 'NONE',  #218 ) ;
#141 = ADVANCED_FACE ( 'NONE', ( #258 ), #55, .T. ) ;
#142 = VECTOR ( 'NONE', #265, 1000.000000000000000 ) ;
#143 = DIRECTION ( 'NONE',  ( 3.491481338843133355E-15, -1.224646799147353207E-16, 1.000000000000000000 ) ) ;
#144 = DIRECTION ( 'NONE',  ( 3.491481338843133355E-15, -1.224646799147353207E-16, 1.000000000000000000 ) ) ;
#145 = ORIENTED_EDGE ( 'NONE', *, *, #186, .T. ) ;
#146 = AXIS2_PLACEMENT_3D ( 'NONE', #260, #112, #230 ) ;
#147 = ADVANCED_FACE ( 'NONE', ( #263 ), #131, .T. ) ;
#148 = PERSON_AND_ORGANIZATION ( #169, #18 ) ;
#149 = CARTESIAN_POINT ( 'NONE',  ( 3.719100183479479275E-15, 1.674999999999994493, 1.006441536871171216 ) ) ;
#150 = COORDINATED_UNIVERSAL_TIME_OFFSET ( 1, 0, .AHEAD. ) ;
#151 = CC_DESIGN_SECURITY_CLASSIFICATION ( #259, ( #111 ) ) ;
#152 = ORIENTED_EDGE ( 'NONE', *, *, #243, .F. ) ;
#153 = DIRECTION ( 'NONE',  ( 4.275831445896958607E-31, 1.000000000000000000, 1.224646799147353207E-16 ) ) ;
#154 = APPROVAL_ROLE ( '' ) ;
#155 = VERTEX_POINT ( 'NONE', #159 ) ;
#156 = CYLINDRICAL_SURFACE ( 'NONE', #146, 1.674999999999998046 ) ;
#157 = CONICAL_SURFACE ( 'NONE', #163, 1.275000000000000577, 0.7853981633974510546 ) ;
#158 = ORIENTED_EDGE ( 'NONE', *, *, #273, .F. ) ;
#159 = CARTESIAN_POINT ( 'NONE',  ( 0.0000000000000000000, 0.0000000000000000000, 0.0000000000000000000 ) ) ;
#160 = CARTESIAN_POINT ( 'NONE',  ( 7.162017671877386267E-31, 1.674999999999995604, 2.051283388571811217E-16 ) ) ;
#161 = CARTESIAN_POINT ( 'NONE',  ( 4.888073874380386697E-14, 1.256048817979300136E-32, 14.00000000000000000 ) ) ;
#162 = PERSON_AND_ORGANIZATION_ROLE ( 'creator' ) ;
#163 = AXIS2_PLACEMENT_3D ( 'NONE', #138, #133, #115 ) ;
#164 = CC_DESIGN_DATE_AND_TIME_ASSIGNMENT ( #3, #209, ( #279 ) ) ;
#165 = ORIENTED_EDGE ( 'NONE', *, *, #313, .T. ) ;
#166 = ORIENTED_EDGE ( 'NONE', *, *, #242, .T. ) ;
#167 = DATE_TIME_ROLE ( 'classification_date' ) ;
#168 = ORIENTED_EDGE ( 'NONE', *, *, #184, .T. ) ;
#169 = PERSON ( 'UNSPECIFIED', 'UNSPECIFIED', 'UNSPECIFIED', ('UNSPECIFIED'), ('UNSPECIFIED'), ('UNSPECIFIED') ) ;
#170 =( LENGTH_UNIT ( ) NAMED_UNIT ( * ) SI_UNIT ( .MILLI., .METRE. ) );
#171 = VECTOR ( 'NONE', #90, 1000.000000000000114 ) ;
#172 = EDGE_CURVE ( 'NONE', #256, #297, #238, .T. ) ;
#173 = PERSON_AND_ORGANIZATION ( #169, #18 ) ;
#174 = LINE ( 'NONE', #149, #171 ) ;
#175 = COORDINATED_UNIVERSAL_TIME_OFFSET ( 1, 0, .AHEAD. ) ;
#176 = APPROVAL ( #291, 'UNSPECIFIED' ) ;
#177 = EDGE_LOOP ( 'NONE', ( #65, #62 ) ) ;
#178 = AXIS2_PLACEMENT_3D ( 'NONE', #77, #207, #229 ) ;
#179 = DIRECTION ( 'NONE',  ( 4.599235688088935701E-31, 1.000000000000000000, 1.294569758191651100E-16 ) ) ;
#180 = EDGE_LOOP ( 'NONE', ( #280, #314 ) ) ;
#181 = DIRECTION ( 'NONE',  ( -3.491481338843133355E-15, 1.224646799147353207E-16, -1.000000000000000000 ) ) ;
#182 = CIRCLE ( 'NONE', #4, 1.674999999999996048 ) ;
#183 = VERTEX_POINT ( 'NONE', #135 ) ;
#184 = EDGE_CURVE ( 'NONE', #183, #202, #129, .T. ) ;
#185 = COORDINATED_UNIVERSAL_TIME_OFFSET ( 1, 0, .AHEAD. ) ;
#186 = EDGE_CURVE ( 'NONE', #202, #183, #182, .T. ) ;
#187 = CARTESIAN_POINT ( 'NONE',  ( 1.696859930677762937E-13, 1.674999999999994493, 48.60000000000000142 ) ) ;
#188 = AXIS2_PLACEMENT_3D ( 'NONE', #130, #54, #228 ) ;
#189 = APPLICATION_CONTEXT ( 'configuration controlled 3d designs of mechanical parts and assemblies' ) ;
#190 = CONICAL_SURFACE ( 'NONE', #97, 1.674999999999994715, 1.029744258676649871 ) ;
#191 = CARTESIAN_POINT ( 'NONE',  ( 3.719100183479479275E-15, 1.674999999999994493, 1.006441536871171216 ) ) ;
#192 = DIRECTION ( 'NONE',  ( -3.491481338843133355E-15, 1.224646799147353207E-16, -1.000000000000000000 ) ) ;
#193 = CC_DESIGN_PERSON_AND_ORGANIZATION_ASSIGNMENT ( #335, #101, ( #111 ) ) ;
#194 = ADVANCED_FACE ( 'NONE', ( #34 ), #140, .F. ) ;
#195 = AXIS2_PLACEMENT_3D ( 'NONE', #239, #136, #210 ) ;
#196 = COORDINATED_UNIVERSAL_TIME_OFFSET ( 1, 0, .AHEAD. ) ;
#197 = DIRECTION ( 'NONE',  ( -3.491481338843133355E-15, 1.224646799147353207E-16, -1.000000000000000000 ) ) ;
#198 = EDGE_LOOP ( 'NONE', ( #105, #284, #232 ) ) ;
#199 = PERSON_AND_ORGANIZATION_ROLE ( 'design_owner' ) ;
#200 = CARTESIAN_POINT ( 'NONE',  ( 0.0000000000000000000, 0.0000000000000000000, 0.0000000000000000000 ) ) ;
#201 = CARTESIAN_POINT ( 'NONE',  ( 4.888073874380386697E-14, -1.714505518806294638E-15, 14.00000000000000000 ) ) ;
#202 = VERTEX_POINT ( 'NONE', #15 ) ;
#203 = PERSON_AND_ORGANIZATION ( #169, #18 ) ;
#204 = EDGE_LOOP ( 'NONE', ( #145, #252, #266, #134 ) ) ;
#205 = EDGE_CURVE ( 'NONE', #2, #23, #104, .T. ) ;
#206 = DIRECTION ( 'NONE',  ( -3.491481338843133355E-15, 1.224646799147353207E-16, -1.000000000000000000 ) ) ;
#207 = DIRECTION ( 'NONE',  ( -3.491481338843133355E-15, 1.224646799147353207E-16, -1.000000000000000000 ) ) ;
#208 = CC_DESIGN_APPROVAL ( #221, ( #279 ) ) ;
#209 = DATE_TIME_ROLE ( 'creation_date' ) ;
#210 = DIRECTION ( 'NONE',  ( -4.599235688088935701E-31, -1.000000000000000000, -1.294569758191651100E-16 ) ) ;
#211 = DATE_AND_TIME ( #295, #67 ) ;
#212 = LOCAL_TIME ( 9, 22, 35.00000000000000000, #185 ) ;
#213 = DIRECTION ( 'NONE',  ( -4.275831445896958607E-31, -1.000000000000000000, -1.224646799147353207E-16 ) ) ;
#214 = CARTESIAN_POINT ( 'NONE',  ( 1.712387280702048211E-13, -1.275000000000006573, 49.00000000000000000 ) ) ;
#215 = CYLINDRICAL_SURFACE ( 'NONE', #84, 1.674999999999998046 ) ;
#216 = ORIENTED_EDGE ( 'NONE', *, *, #236, .F. ) ;
#217 = LINE ( 'NONE', #214, #31 ) ;
#218 = AXIS2_PLACEMENT_3D ( 'NONE', #161, #6, #213 ) ;
#219 = FACE_OUTER_BOUND ( 'NONE', #204, .T. ) ;
#220 = ORIENTED_EDGE ( 'NONE', *, *, #257, .T. ) ;
#221 = APPROVAL ( #46, 'UNSPECIFIED' ) ;
#222 = CARTESIAN_POINT ( 'NONE',  ( 1.696859930677762937E-13, -5.951783443856137509E-15, 48.60000000000000142 ) ) ;
#223 = PERSON_AND_ORGANIZATION_ROLE ( 'design_supplier' ) ;
#224 = AXIS2_PLACEMENT_3D ( 'NONE', #222, #17, #123 ) ;
#225 = DIRECTION ( 'NONE',  ( -3.491481338843133355E-15, 1.224646799147353207E-16, -1.000000000000000000 ) ) ;
#226 = CALENDAR_DATE ( 2021, 3, 9 ) ;
#227 = CARTESIAN_POINT ( 'NONE',  ( 4.888073874380386697E-14, -1.714505518806294638E-15, 14.00000000000000000 ) ) ;
#228 = DIRECTION ( 'NONE',  ( 0.0000000000000000000, 1.000000000000000000, 0.0000000000000000000 ) ) ;
#229 = DIRECTION ( 'NONE',  ( 0.0000000000000000000, 1.000000000000000000, 0.0000000000000000000 ) ) ;
#230 = DIRECTION ( 'NONE',  ( 4.275831445896958607E-31, 1.000000000000000000, 1.224646799147353207E-16 ) ) ;
#231 = CIRCLE ( 'NONE', #269, 1.674999999999996048 ) ;
#232 = ORIENTED_EDGE ( 'NONE', *, *, #172, .T. ) ;
#233 = ORIENTED_EDGE ( 'NONE', *, *, #53, .T. ) ;
#234 = DIRECTION ( 'NONE',  ( 0.0000000000000000000, 1.000000000000000000, 0.0000000000000000000 ) ) ;
#235 = EDGE_CURVE ( 'NONE', #23, #32, #325, .T. ) ;
#236 = EDGE_CURVE ( 'NONE', #155, #256, #174, .T. ) ;
#237 = APPLICATION_PROTOCOL_DEFINITION ( 'international standard', 'config_control_design', 1994, #189 ) ;
#238 = CIRCLE ( 'NONE', #281, 1.674999999999994715 ) ;
#239 = CARTESIAN_POINT ( 'NONE',  ( 3.513971844622297192E-15, -1.232535406658222547E-16, 1.006441536871170994 ) ) ;
#240 = ORIENTED_EDGE ( 'NONE', *, *, #5, .T. ) ;
#241 = APPROVAL_PERSON_ORGANIZATION ( #9, #176, #321 ) ;
#242 = EDGE_CURVE ( 'NONE', #155, #297, #10, .T. ) ;
#243 = EDGE_CURVE ( 'NONE', #183, #297, #39, .T. ) ;
#244 = CLOSED_SHELL ( 'NONE', ( #141, #331, #194, #107, #305, #127 ) ) ;
#245 = VECTOR ( 'NONE', #323, 1000.000000000000000 ) ;
#246 = LOCAL_TIME ( 9, 22, 35.00000000000000000, #175 ) ;
#247 = ORIENTED_EDGE ( 'NONE', *, *, #5, .F. ) ;
#248 = CARTESIAN_POINT ( 'NONE',  ( 2.051283388571804068E-16, -1.674999999999995604, -2.051283388571818120E-16 ) ) ;
#249 = AXIS2_PLACEMENT_3D ( 'NONE', #95, #192, #299 ) ;
#250 = CALENDAR_DATE ( 2021, 3, 9 ) ;
#251 = APPROVAL_DATE_TIME ( #302, #221 ) ;
#252 = ORIENTED_EDGE ( 'NONE', *, *, #243, .T. ) ;
#253 = DIRECTION ( 'NONE',  ( -3.491481338843133355E-15, 1.224646799147353207E-16, -1.000000000000000000 ) ) ;
#254 = FACE_OUTER_BOUND ( 'NONE', #86, .T. ) ;
#255 = EDGE_CURVE ( 'NONE', #122, #23, #217, .T. ) ;
#256 = VERTEX_POINT ( 'NONE', #191 ) ;
#257 = EDGE_CURVE ( 'NONE', #297, #256, #92, .T. ) ;
#258 = FACE_OUTER_BOUND ( 'NONE', #45, .T. ) ;
#259 = SECURITY_CLASSIFICATION ( '', '', #330 ) ;
#260 = CARTESIAN_POINT ( 'NONE',  ( 0.0000000000000000000, 0.0000000000000000000, 0.0000000000000000000 ) ) ;
#261 = CARTESIAN_POINT ( 'NONE',  ( 0.0000000000000000000, 0.0000000000000000000, 0.0000000000000000000 ) ) ;
#262 = ORIENTED_EDGE ( 'NONE', *, *, #205, .F. ) ;
#263 = FACE_OUTER_BOUND ( 'NONE', #48, .T. ) ;
#264 = CARTESIAN_POINT ( 'NONE',  ( 1.710825856033135470E-13, -6.000769315822030937E-15, 49.00000000000000000 ) ) ;
#265 = DIRECTION ( 'NONE',  ( -3.491481338843133355E-15, 1.224646799147353207E-16, -1.000000000000000000 ) ) ;
#266 = ORIENTED_EDGE ( 'NONE', *, *, #172, .F. ) ;
#267 = PERSON_AND_ORGANIZATION ( #169, #18 ) ;
#268 = CIRCLE ( 'NONE', #121, 1.275000000000000577 ) ;
#269 = AXIS2_PLACEMENT_3D ( 'NONE', #201, #308, #277 ) ;
#270 = LINE ( 'NONE', #85, #326 ) ;
#271 = EDGE_LOOP ( 'NONE', ( #139, #274, #20, #68 ) ) ;
#272 = EDGE_CURVE ( 'NONE', #23, #2, #44, .T. ) ;
#273 = EDGE_CURVE ( 'NONE', #32, #300, #312, .T. ) ;
#274 = ORIENTED_EDGE ( 'NONE', *, *, #235, .T. ) ;
#275 = CARTESIAN_POINT ( 'NONE',  ( 3.513971844622297192E-15, -1.232535406658222547E-16, 1.006441536871170994 ) ) ;
#276 = ORIENTED_EDGE ( 'NONE', *, *, #1, .T. ) ;
#277 = DIRECTION ( 'NONE',  ( 0.0000000000000000000, 1.000000000000000000, 0.0000000000000000000 ) ) ;
#278 = AXIS2_PLACEMENT_3D ( 'NONE', #22, #206, #179 ) ;
#279 = PRODUCT_DEFINITION ( 'UNKNOWN', '', #111, #87 ) ;
#280 = ORIENTED_EDGE ( 'NONE', *, *, #186, .F. ) ;
#281 = AXIS2_PLACEMENT_3D ( 'NONE', #28, #253, #333 ) ;
#282 = DIRECTION ( 'NONE',  ( 4.275831445896958607E-31, 1.000000000000000000, 1.224646799147353207E-16 ) ) ;
#283 = CARTESIAN_POINT ( 'NONE',  ( 1.710825856033135470E-13, -6.000769315822030937E-15, 49.00000000000000000 ) ) ;
#284 = ORIENTED_EDGE ( 'NONE', *, *, #236, .T. ) ;
#285 = APPROVAL_DATE_TIME ( #75, #106 ) ;
#286 = VECTOR ( 'NONE', #294, 1000.000000000000000 ) ;
#287 = APPROVAL_PERSON_ORGANIZATION ( #148, #106, #310 ) ;
#288 = LINE ( 'NONE', #117, #245 ) ;
#289 = EDGE_CURVE ( 'NONE', #300, #32, #231, .T. ) ;
#290 = CARTESIAN_POINT ( 'NONE',  ( 4.888073874380386697E-14, 1.674999999999994493, 14.00000000000000000 ) ) ;
#291 = APPROVAL_STATUS ( 'not_yet_approved' ) ;
#292 = CC_DESIGN_PERSON_AND_ORGANIZATION_ASSIGNMENT ( #173, #96, ( #259 ) ) ;
#293 = CC_DESIGN_APPROVAL ( #176, ( #259 ) ) ;
#294 = DIRECTION ( 'NONE',  ( -3.491481338843133355E-15, 1.224646799147353207E-16, -1.000000000000000000 ) ) ;
#295 = CALENDAR_DATE ( 2021, 3, 9 ) ;
#296 = DIRECTION ( 'NONE',  ( -4.275831445896958607E-31, -1.000000000000000000, -1.224646799147353207E-16 ) ) ;
#297 = VERTEX_POINT ( 'NONE', #324 ) ;
#298 = DIRECTION ( 'NONE',  ( -3.491481338843133355E-15, 1.224646799147353207E-16, -1.000000000000000000 ) ) ;
#299 = DIRECTION ( 'NONE',  ( 4.275831445896958607E-31, 1.000000000000000000, 1.224646799147353207E-16 ) ) ;
#300 = VERTEX_POINT ( 'NONE', #290 ) ;
#301 = AXIS2_PLACEMENT_3D ( 'NONE', #13, #225, #153 ) ;
#302 = DATE_AND_TIME ( #250, #64 ) ;
#303 = EDGE_CURVE ( 'NONE', #2, #300, #270, .T. ) ;
#304 = EDGE_LOOP ( 'NONE', ( #329, #61 ) ) ;
#305 = ADVANCED_FACE ( 'NONE', ( #109 ), #157, .T. ) ;
#306 = DIRECTION ( 'NONE',  ( 0.0000000000000000000, 0.0000000000000000000, 1.000000000000000000 ) ) ;
#307 = ADVANCED_BREP_SHAPE_REPRESENTATION ( '4567', ( #59, #57, #322 ), #37 ) ;
#308 = DIRECTION ( 'NONE',  ( -3.491481338843133355E-15, 1.224646799147353207E-16, -1.000000000000000000 ) ) ;
#309 = CARTESIAN_POINT ( 'NONE',  ( 1.094884942446471121E-13, -1.675000000000006040, 48.60000000000000142 ) ) ;
#310 = APPROVAL_ROLE ( '' ) ;
#311 = PRODUCT ( '4567', '4567', '', ( #58 ) ) ;
#312 = CIRCLE ( 'NONE', #79, 1.674999999999996048 ) ;
#313 = EDGE_CURVE ( 'NONE', #202, #256, #60, .T. ) ;
#314 = ORIENTED_EDGE ( 'NONE', *, *, #184, .F. ) ;
#315 = CARTESIAN_POINT ( 'NONE',  ( 1.705649247384191490E-13, -1.275000000000006573, 49.00000000000000000 ) ) ;
#316 = DIRECTION ( 'NONE',  ( -3.491481338843133355E-15, 1.224646799147353207E-16, -1.000000000000000000 ) ) ;
#317 = ORIENTED_EDGE ( 'NONE', *, *, #255, .T. ) ;
#318 = APPROVAL_STATUS ( 'not_yet_approved' ) ;
#319 = CARTESIAN_POINT ( 'NONE',  ( 4.888073874380386697E-14, 1.256048817979300136E-32, 14.00000000000000000 ) ) ;
#320 = DIRECTION ( 'NONE',  ( -3.491481338843133355E-15, 1.224646799147353207E-16, -1.000000000000000000 ) ) ;
#321 = APPROVAL_ROLE ( '' ) ;
#322 = AXIS2_PLACEMENT_3D ( 'NONE', #200, #306, #36 ) ;
#323 = DIRECTION ( 'NONE',  ( -2.468850131082258244E-15, 0.7071067811865495711, -0.7071067811865454633 ) ) ;
#324 = CARTESIAN_POINT ( 'NONE',  ( 3.513971844622296403E-15, -1.674999999999994937, 1.006441536871170772 ) ) ;
#325 = LINE ( 'NONE', #76, #137 ) ;
#326 = VECTOR ( 'NONE', #33, 1000.000000000000000 ) ;
#327 = CYLINDRICAL_SURFACE ( 'NONE', #249, 1.674999999999995604 ) ;
#328 = DIRECTION ( 'NONE',  ( 4.275831445896958607E-31, 1.000000000000000000, 1.224646799147353207E-16 ) ) ;
#329 = ORIENTED_EDGE ( 'NONE', *, *, #53, .F. ) ;
#330 = SECURITY_CLASSIFICATION_LEVEL ( 'unclassified' ) ;
#331 = ADVANCED_FACE ( 'NONE', ( #30 ), #215, .T. ) ;
#332 = DATE_AND_TIME ( #226, #8 ) ;
#333 = DIRECTION ( 'NONE',  ( 4.599235688088935701E-31, 1.000000000000000000, 1.294569758191651100E-16 ) ) ;
#334 = FACE_OUTER_BOUND ( 'NONE', #180, .T. ) ;
#335 = PERSON_AND_ORGANIZATION ( #169, #18 ) ;
#336 = AXIS2_PLACEMENT_3D ( 'NONE', #24, #128, #234 ) ;
#337 = CARTESIAN_POINT ( 'NONE',  ( 4.888073874380386697E-14, -1.714505518806294638E-15, 14.00000000000000000 ) ) ;
ENDSEC;
END-ISO-10303-21;
