ISO-10303-21;
HEADER;
FILE_DESCRIPTION (( 'STEP AP203' ),
    '1' );
FILE_NAME ('45662.step',
    '2021-11-16T14:59:00',
    ( '' ),
    ( '' ),
    'SwSTEP 2.0',
    'SolidWorks 2019',
    '' );
FILE_SCHEMA (( 'CONFIG_CONTROL_DESIGN' ));
ENDSEC;

DATA;
#1 = SECURITY_CLASSIFICATION ( '', '', #71 ) ;
#2 = PLANE ( 'NONE',  #185 ) ;
#3 = FACE_BOUND ( 'NONE', #91, .T. ) ;
#4 = FACE_OUTER_BOUND ( 'NONE', #107, .T. ) ;
#5 = LOCAL_TIME ( 15, 59, 0.0000000000000000000, #56 ) ;
#6 = FACE_OUTER_BOUND ( 'NONE', #154, .T. ) ;
#7 = ADVANCED_FACE ( 'NONE', ( #170, #3 ), #40, .T. ) ;
#8 = PLANE ( 'NONE',  #101 ) ;
#9 = CC_DESIGN_PERSON_AND_ORGANIZATION_ASSIGNMENT ( #162, #177, ( #1 ) ) ;
#10 = COORDINATED_UNIVERSAL_TIME_OFFSET ( 1, 0, .AHEAD. ) ;
#11 = APPROVAL_ROLE ( '' ) ;
#12 = SHAPE_DEFINITION_REPRESENTATION ( #113, #172 ) ;
#13 = CC_DESIGN_DATE_AND_TIME_ASSIGNMENT ( #165, #197, ( #1 ) ) ;
#14 = AXIS2_PLACEMENT_3D ( 'NONE', #159, #114, #147 ) ;
#15 = CARTESIAN_POINT ( 'NONE',  ( 9.077851480992146724E-14, -3.184081677783118191E-15, 26.00000000000000000 ) ) ;
#16 = AXIS2_PLACEMENT_3D ( 'NONE', #99, #49, #128 ) ;
#17 = CARTESIAN_POINT ( 'NONE',  ( 2.880472104545584198E-13, -1.010333609296566392E-14, 82.49999999999998579 ) ) ;
#18 = CARTESIAN_POINT ( 'NONE',  ( 6.413860661669501715E-31, 5.999999999999991118, 1.837002704357763860E-16 ) ) ;
#19 = CARTESIAN_POINT ( 'NONE',  ( 2.897929511239800811E-13, 5.499999999999991118, 83.00000000000000000 ) ) ;
#20 = CARTESIAN_POINT ( 'NONE',  ( 9.077851480992146724E-14, 5.999999999999991118, 26.00000000000000000 ) ) ;
#21 =( LENGTH_UNIT ( ) NAMED_UNIT ( * ) SI_UNIT ( .MILLI., .METRE. ) );
#22 = FACE_OUTER_BOUND ( 'NONE', #168, .T. ) ;
#23 = AXIS2_PLACEMENT_3D ( 'NONE', #130, #84, #144 ) ;
#24 = COORDINATED_UNIVERSAL_TIME_OFFSET ( 1, 0, .AHEAD. ) ;
#25 = APPROVAL_STATUS ( 'not_yet_approved' ) ;
#26 = DATE_AND_TIME ( #134, #161 ) ;
#27 = CC_DESIGN_APPROVAL ( #37, ( #1 ) ) ;
#28 = DIRECTION ( 'NONE',  ( -3.491481338843133355E-15, 1.224646799147353207E-16, -1.000000000000000000 ) ) ;
#29 = ORIENTED_EDGE ( 'NONE', *, *, #54, .F. ) ;
#30 = DIRECTION ( 'NONE',  ( 0.0000000000000000000, 1.000000000000000000, 0.0000000000000000000 ) ) ;
#31 = CARTESIAN_POINT ( 'NONE',  ( 9.077851480992146724E-14, 4.499279347985564065E-32, 26.00000000000000000 ) ) ;
#32 = MECHANICAL_CONTEXT ( 'NONE', #157, 'mechanical' ) ;
#33 = DIRECTION ( 'NONE',  ( 3.491481338843133355E-15, -1.224646799147353207E-16, 1.000000000000000000 ) ) ;
#34 = CARTESIAN_POINT ( 'NONE',  ( -9.620564006856106570E-31, 3.374439607027183157E-32, -2.755439045263172514E-16 ) ) ;
#35 = COORDINATED_UNIVERSAL_TIME_OFFSET ( 1, 0, .AHEAD. ) ;
#36 = CALENDAR_DATE ( 2021, 16, 11 ) ;
#37 = APPROVAL ( #25, 'UNSPECIFIED' ) ;
#38 = APPROVAL_ROLE ( '' ) ;
#39 =( GEOMETRIC_REPRESENTATION_CONTEXT ( 3 ) GLOBAL_UNCERTAINTY_ASSIGNED_CONTEXT ( ( #61 ) ) GLOBAL_UNIT_ASSIGNED_CONTEXT ( ( #21, #97, #117 ) ) REPRESENTATION_CONTEXT ( 'NONE', 'WORKASPACE' ) );
#40 = CONICAL_SURFACE ( 'NONE', #72, 5.500000000000001776, 0.7853981633974344012 ) ;
#41 = APPROVAL_STATUS ( 'not_yet_approved' ) ;
#42 = EDGE_CURVE ( 'NONE', #190, #190, #166, .T. ) ;
#43 = ORIENTED_EDGE ( 'NONE', *, *, #199, .F. ) ;
#44 = ORIENTED_EDGE ( 'NONE', *, *, #153, .T. ) ;
#45 = ORIENTED_EDGE ( 'NONE', *, *, #42, .F. ) ;
#46 = CYLINDRICAL_SURFACE ( 'NONE', #63, 5.999999999999992895 ) ;
#47 = PLANE ( 'NONE',  #127 ) ;
#48 = LOCAL_TIME ( 15, 59, 0.0000000000000000000, #150 ) ;
#49 = DIRECTION ( 'NONE',  ( 0.0000000000000000000, 0.0000000000000000000, 1.000000000000000000 ) ) ;
#50 = CARTESIAN_POINT ( 'NONE',  ( 0.0000000000000000000, 0.0000000000000000000, 0.0000000000000000000 ) ) ;
#51 = APPROVAL_DATE_TIME ( #73, #138 ) ;
#52 = AXIS2_PLACEMENT_3D ( 'NONE', #17, #81, #143 ) ;
#53 = APPROVAL_STATUS ( 'not_yet_approved' ) ;
#54 = EDGE_CURVE ( 'NONE', #87, #87, #131, .T. ) ;
#55 = PERSON_AND_ORGANIZATION ( #66, #83 ) ;
#56 = COORDINATED_UNIVERSAL_TIME_OFFSET ( 1, 0, .AHEAD. ) ;
#57 = ORIENTED_EDGE ( 'NONE', *, *, #76, .F. ) ;
#58 = DIRECTION ( 'NONE',  ( -3.491481338843133355E-15, 1.224646799147353207E-16, -1.000000000000000000 ) ) ;
#59 = DIRECTION ( 'NONE',  ( -4.275831445896958607E-31, -1.000000000000000000, -1.224646799147353207E-16 ) ) ;
#60 = ADVANCED_FACE ( 'NONE', ( #124, #181 ), #95, .T. ) ;
#61 = UNCERTAINTY_MEASURE_WITH_UNIT (LENGTH_MEASURE( 1.000000000000000082E-05 ), #21, 'distance_accuracy_value', 'NONE');
#62 = DIRECTION ( 'NONE',  ( 4.275831445896958607E-31, 1.000000000000000000, 1.224646799147353207E-16 ) ) ;
#63 = AXIS2_PLACEMENT_3D ( 'NONE', #50, #189, #146 ) ;
#64 = ADVANCED_FACE ( 'NONE', ( #111 ), #2, .F. ) ;
#65 = CARTESIAN_POINT ( 'NONE',  ( 2.897929511239800811E-13, 4.124339402320094190E-32, 83.00000000000000000 ) ) ;
#66 = PERSON ( 'UNSPECIFIED', 'UNSPECIFIED', 'UNSPECIFIED', ('UNSPECIFIED'), ('UNSPECIFIED'), ('UNSPECIFIED') ) ;
#67 = DIRECTION ( 'NONE',  ( -4.275831445896958607E-31, -1.000000000000000000, -1.224646799147353207E-16 ) ) ;
#68 = PERSON_AND_ORGANIZATION ( #66, #83 ) ;
#69 = CARTESIAN_POINT ( 'NONE',  ( 9.077851480992146724E-14, 4.499279347985564065E-32, 26.00000000000000000 ) ) ;
#70 = MANIFOLD_SOLID_BREP ( 'Corps-Déplacer/Copier1[2]', #195 ) ;
#71 = SECURITY_CLASSIFICATION_LEVEL ( 'unclassified' ) ;
#72 = AXIS2_PLACEMENT_3D ( 'NONE', #109, #28, #140 ) ;
#73 = DATE_AND_TIME ( #192, #151 ) ;
#74 = PERSON_AND_ORGANIZATION ( #66, #83 ) ;
#75 = DATE_AND_TIME ( #36, #5 ) ;
#76 = EDGE_CURVE ( 'NONE', #115, #115, #104, .T. ) ;
#77 = EDGE_LOOP ( 'NONE', ( #43 ) ) ;
#78 = DIRECTION ( 'NONE',  ( -3.491481338843133355E-15, 1.224646799147353207E-16, -1.000000000000000000 ) ) ;
#79 = AXIS2_PLACEMENT_3D ( 'NONE', #15, #58, #30 ) ;
#80 = ORIENTED_EDGE ( 'NONE', *, *, #199, .T. ) ;
#81 = DIRECTION ( 'NONE',  ( -3.491481338843133355E-15, 1.224646799147353207E-16, -1.000000000000000000 ) ) ;
#82 = PLANE ( 'NONE',  #169 ) ;
#83 = ORGANIZATION ( 'UNSPECIFIED', 'UNSPECIFIED', '' ) ;
#84 = DIRECTION ( 'NONE',  ( -3.491481338843133355E-15, 1.224646799147353207E-16, -1.000000000000000000 ) ) ;
#85 = VERTEX_POINT ( 'NONE', #171 ) ;
#86 = CC_DESIGN_DATE_AND_TIME_ASSIGNMENT ( #163, #102, ( #182 ) ) ;
#87 = VERTEX_POINT ( 'NONE', #20 ) ;
#88 = APPROVAL_ROLE ( '' ) ;
#89 = APPROVAL_DATE_TIME ( #75, #37 ) ;
#90 = APPROVAL_PERSON_ORGANIZATION ( #55, #138, #88 ) ;
#91 = EDGE_LOOP ( 'NONE', ( #179 ) ) ;
#92 = APPROVAL_PERSON_ORGANIZATION ( #121, #37, #38 ) ;
#93 = EDGE_LOOP ( 'NONE', ( #184 ) ) ;
#94 = CC_DESIGN_PERSON_AND_ORGANIZATION_ASSIGNMENT ( #68, #173, ( #155 ) ) ;
#95 = CYLINDRICAL_SURFACE ( 'NONE', #180, 5.999999999999998224 ) ;
#96 = DIRECTION ( 'NONE',  ( 3.491481338843133355E-15, -1.224646799147353207E-16, 1.000000000000000000 ) ) ;
#97 =( NAMED_UNIT ( * ) PLANE_ANGLE_UNIT ( ) SI_UNIT ( $, .RADIAN. ) );
#98 = APPLICATION_PROTOCOL_DEFINITION ( 'international standard', 'config_control_design', 1994, #157 ) ;
#99 = CARTESIAN_POINT ( 'NONE',  ( 0.0000000000000000000, 0.0000000000000000000, 0.0000000000000000000 ) ) ;
#100 = DIRECTION ( 'NONE',  ( 3.491481338843133355E-15, -1.224646799147353207E-16, 1.000000000000000000 ) ) ;
#101 = AXIS2_PLACEMENT_3D ( 'NONE', #34, #100, #67 ) ;
#102 = DATE_TIME_ROLE ( 'creation_date' ) ;
#103 = PERSON_AND_ORGANIZATION ( #66, #83 ) ;
#104 = CIRCLE ( 'NONE', #52, 6.000000000000001776 ) ;
#105 = APPROVAL_DATE_TIME ( #26, #174 ) ;
#106 = DIRECTION ( 'NONE',  ( -3.491481338843133355E-15, 1.224646799147353207E-16, -1.000000000000000000 ) ) ;
#107 = EDGE_LOOP ( 'NONE', ( #44 ) ) ;
#108 = CC_DESIGN_SECURITY_CLASSIFICATION ( #1, ( #137 ) ) ;
#109 = CARTESIAN_POINT ( 'NONE',  ( 2.897929511239800811E-13, -1.016456843292303150E-14, 83.00000000000000000 ) ) ;
#110 = ORIENTED_EDGE ( 'NONE', *, *, #153, .F. ) ;
#111 = FACE_OUTER_BOUND ( 'NONE', #93, .T. ) ;
#112 = LOCAL_TIME ( 15, 59, 0.0000000000000000000, #10 ) ;
#113 = PRODUCT_DEFINITION_SHAPE ( 'NONE', 'NONE',  #182 ) ;
#114 = DIRECTION ( 'NONE',  ( -3.491481338843133355E-15, 1.224646799147353207E-16, -1.000000000000000000 ) ) ;
#115 = VERTEX_POINT ( 'NONE', #188 ) ;
#116 = CC_DESIGN_PERSON_AND_ORGANIZATION_ASSIGNMENT ( #148, #198, ( #182 ) ) ;
#117 =( NAMED_UNIT ( * ) SI_UNIT ( $, .STERADIAN. ) SOLID_ANGLE_UNIT ( ) );
#118 = FACE_OUTER_BOUND ( 'NONE', #139, .T. ) ;
#119 = CC_DESIGN_APPROVAL ( #138, ( #182 ) ) ;
#120 = CALENDAR_DATE ( 2021, 16, 11 ) ;
#121 = PERSON_AND_ORGANIZATION ( #66, #83 ) ;
#122 = EDGE_LOOP ( 'NONE', ( #57 ) ) ;
#123 = AXIS2_PLACEMENT_3D ( 'NONE', #203, #106, #152 ) ;
#124 = FACE_OUTER_BOUND ( 'NONE', #183, .T. ) ;
#125 = CARTESIAN_POINT ( 'NONE',  ( 0.0000000000000000000, 0.0000000000000000000, 0.0000000000000000000 ) ) ;
#126 = FACE_OUTER_BOUND ( 'NONE', #77, .T. ) ;
#127 = AXIS2_PLACEMENT_3D ( 'NONE', #65, #145, #186 ) ;
#128 = DIRECTION ( 'NONE',  ( 1.000000000000000000, 0.0000000000000000000, 0.0000000000000000000 ) ) ;
#129 = PRODUCT_RELATED_PRODUCT_CATEGORY ( 'detail', '', ( #155 ) ) ;
#130 = CARTESIAN_POINT ( 'NONE',  ( 9.077851480992146724E-14, -3.184081677783118191E-15, 26.00000000000000000 ) ) ;
#131 = CIRCLE ( 'NONE', #79, 5.999999999999994671 ) ;
#132 = PERSON_AND_ORGANIZATION ( #66, #83 ) ;
#133 = CALENDAR_DATE ( 2021, 16, 11 ) ;
#134 = CALENDAR_DATE ( 2021, 16, 11 ) ;
#135 = ADVANCED_FACE ( 'NONE', ( #4 ), #8, .F. ) ;
#136 = PERSON_AND_ORGANIZATION_ROLE ( 'creator' ) ;
#137 = PRODUCT_DEFINITION_FORMATION_WITH_SPECIFIED_SOURCE ( 'ANY', '', #155, .NOT_KNOWN. ) ;
#138 = APPROVAL ( #53, 'UNSPECIFIED' ) ;
#139 = EDGE_LOOP ( 'NONE', ( #45 ) ) ;
#140 = DIRECTION ( 'NONE',  ( 0.0000000000000000000, 1.000000000000000000, 0.0000000000000000000 ) ) ;
#141 = CLOSED_SHELL ( 'NONE', ( #64, #60, #7, #178 ) ) ;
#142 = ORIENTED_EDGE ( 'NONE', *, *, #76, .T. ) ;
#143 = DIRECTION ( 'NONE',  ( 0.0000000000000000000, 1.000000000000000000, 0.0000000000000000000 ) ) ;
#144 = DIRECTION ( 'NONE',  ( 0.0000000000000000000, 1.000000000000000000, 0.0000000000000000000 ) ) ;
#145 = DIRECTION ( 'NONE',  ( -3.491481338843133355E-15, 1.224646799147353207E-16, -1.000000000000000000 ) ) ;
#146 = DIRECTION ( 'NONE',  ( 4.275831445896958607E-31, 1.000000000000000000, 1.224646799147353207E-16 ) ) ;
#147 = DIRECTION ( 'NONE',  ( 4.275831445896959482E-31, 1.000000000000000000, 1.224646799147353207E-16 ) ) ;
#148 = PERSON_AND_ORGANIZATION ( #66, #83 ) ;
#149 = CC_DESIGN_PERSON_AND_ORGANIZATION_ASSIGNMENT ( #74, #136, ( #137 ) ) ;
#150 = COORDINATED_UNIVERSAL_TIME_OFFSET ( 1, 0, .AHEAD. ) ;
#151 = LOCAL_TIME ( 15, 59, 0.0000000000000000000, #35 ) ;
#152 = DIRECTION ( 'NONE',  ( 0.0000000000000000000, 1.000000000000000000, 0.0000000000000000000 ) ) ;
#153 = EDGE_CURVE ( 'NONE', #156, #156, #200, .T. ) ;
#154 = EDGE_LOOP ( 'NONE', ( #80 ) ) ;
#155 = PRODUCT ( '45662', '45662', '', ( #32 ) ) ;
#156 = VERTEX_POINT ( 'NONE', #18 ) ;
#157 = APPLICATION_CONTEXT ( 'configuration controlled 3d designs of mechanical parts and assemblies' ) ;
#158 = APPLICATION_PROTOCOL_DEFINITION ( 'international standard', 'config_control_design', 1994, #167 ) ;
#159 = CARTESIAN_POINT ( 'NONE',  ( -1.924112801371221314E-30, 6.748879214054366313E-32, -5.510878090526345029E-16 ) ) ;
#160 = ADVANCED_FACE ( 'NONE', ( #126 ), #82, .T. ) ;
#161 = LOCAL_TIME ( 15, 59, 0.0000000000000000000, #24 ) ;
#162 = PERSON_AND_ORGANIZATION ( #66, #83 ) ;
#163 = DATE_AND_TIME ( #120, #112 ) ;
#164 = CC_DESIGN_PERSON_AND_ORGANIZATION_ASSIGNMENT ( #132, #196, ( #137 ) ) ;
#165 = DATE_AND_TIME ( #133, #48 ) ;
#166 = CIRCLE ( 'NONE', #123, 5.500000000000001776 ) ;
#167 = APPLICATION_CONTEXT ( 'configuration controlled 3d designs of mechanical parts and assemblies' ) ;
#168 = EDGE_LOOP ( 'NONE', ( #110 ) ) ;
#169 = AXIS2_PLACEMENT_3D ( 'NONE', #69, #33, #175 ) ;
#170 = FACE_OUTER_BOUND ( 'NONE', #122, .T. ) ;
#171 = CARTESIAN_POINT ( 'NONE',  ( 9.077851480992146724E-14, 5.999999999999991118, 26.00000000000000000 ) ) ;
#172 = ADVANCED_BREP_SHAPE_REPRESENTATION ( '45662', ( #202, #70, #16 ), #39 ) ;
#173 = PERSON_AND_ORGANIZATION_ROLE ( 'design_owner' ) ;
#174 = APPROVAL ( #41, 'UNSPECIFIED' ) ;
#175 = DIRECTION ( 'NONE',  ( -4.275831445896958607E-31, -1.000000000000000000, -1.224646799147353207E-16 ) ) ;
#176 = CC_DESIGN_APPROVAL ( #174, ( #137 ) ) ;
#177 = PERSON_AND_ORGANIZATION_ROLE ( 'classification_officer' ) ;
#178 = ADVANCED_FACE ( 'NONE', ( #118 ), #47, .F. ) ;
#179 = ORIENTED_EDGE ( 'NONE', *, *, #42, .T. ) ;
#180 = AXIS2_PLACEMENT_3D ( 'NONE', #125, #78, #62 ) ;
#181 = FACE_OUTER_BOUND ( 'NONE', #201, .T. ) ;
#182 = PRODUCT_DEFINITION ( 'UNKNOWN', '', #137, #187 ) ;
#183 = EDGE_LOOP ( 'NONE', ( #29 ) ) ;
#184 = ORIENTED_EDGE ( 'NONE', *, *, #54, .T. ) ;
#185 = AXIS2_PLACEMENT_3D ( 'NONE', #31, #96, #59 ) ;
#186 = DIRECTION ( 'NONE',  ( 4.275831445896958607E-31, 1.000000000000000000, 1.224646799147353207E-16 ) ) ;
#187 = DESIGN_CONTEXT ( 'detailed design', #167, 'design' ) ;
#188 = CARTESIAN_POINT ( 'NONE',  ( 2.880472104545584198E-13, 5.999999999999991118, 82.49999999999998579 ) ) ;
#189 = DIRECTION ( 'NONE',  ( -3.491481338843133355E-15, 1.224646799147353207E-16, -1.000000000000000000 ) ) ;
#190 = VERTEX_POINT ( 'NONE', #19 ) ;
#191 = CIRCLE ( 'NONE', #23, 5.999999999999994671 ) ;
#192 = CALENDAR_DATE ( 2021, 16, 11 ) ;
#193 = ADVANCED_FACE ( 'NONE', ( #22, #6 ), #46, .T. ) ;
#194 = APPROVAL_PERSON_ORGANIZATION ( #103, #174, #11 ) ;
#195 = CLOSED_SHELL ( 'NONE', ( #135, #193, #160 ) ) ;
#196 = PERSON_AND_ORGANIZATION_ROLE ( 'design_supplier' ) ;
#197 = DATE_TIME_ROLE ( 'classification_date' ) ;
#198 = PERSON_AND_ORGANIZATION_ROLE ( 'creator' ) ;
#199 = EDGE_CURVE ( 'NONE', #85, #85, #191, .T. ) ;
#200 = CIRCLE ( 'NONE', #14, 5.999999999999991118 ) ;
#201 = EDGE_LOOP ( 'NONE', ( #142 ) ) ;
#202 = MANIFOLD_SOLID_BREP ( 'Corps-Déplacer/Copier1[1]', #141 ) ;
#203 = CARTESIAN_POINT ( 'NONE',  ( 2.897929511239800811E-13, -1.016456843292303150E-14, 83.00000000000000000 ) ) ;
ENDSEC;
END-ISO-10303-21;
