ISO-10303-21;
HEADER;
FILE_DESCRIPTION (( 'STEP AP203' ),
    '1' );
FILE_NAME ('45661.step',
    '2021-11-16T14:58:59',
    ( '' ),
    ( '' ),
    'SwSTEP 2.0',
    'SolidWorks 2019',
    '' );
FILE_SCHEMA (( 'CONFIG_CONTROL_DESIGN' ));
ENDSEC;

DATA;
#1 = CC_DESIGN_APPROVAL ( #195, ( #76 ) ) ;
#2 = EDGE_LOOP ( 'NONE', ( #124 ) ) ;
#3 = EDGE_LOOP ( 'NONE', ( #203 ) ) ;
#4 = DIRECTION ( 'NONE',  ( -3.491481338843133355E-15, 1.224646799147353207E-16, -1.000000000000000000 ) ) ;
#5 =( LENGTH_UNIT ( ) NAMED_UNIT ( * ) SI_UNIT ( .MILLI., .METRE. ) );
#6 = FACE_OUTER_BOUND ( 'NONE', #64, .T. ) ;
#7 = DIRECTION ( 'NONE',  ( 0.0000000000000000000, 1.000000000000000000, 0.0000000000000000000 ) ) ;
#8 = AXIS2_PLACEMENT_3D ( 'NONE', #42, #44, #11 ) ;
#9 = DIRECTION ( 'NONE',  ( -3.491481338843133355E-15, 1.224646799147353207E-16, -1.000000000000000000 ) ) ;
#10 = COORDINATED_UNIVERSAL_TIME_OFFSET ( 1, 0, .AHEAD. ) ;
#11 = DIRECTION ( 'NONE',  ( 1.000000000000000000, 0.0000000000000000000, 0.0000000000000000000 ) ) ;
#12 = AXIS2_PLACEMENT_3D ( 'NONE', #34, #202, #146 ) ;
#13 = COORDINATED_UNIVERSAL_TIME_OFFSET ( 1, 0, .AHEAD. ) ;
#14 = CC_DESIGN_PERSON_AND_ORGANIZATION_ASSIGNMENT ( #163, #90, ( #76 ) ) ;
#15 = ADVANCED_FACE ( 'NONE', ( #188 ), #109, .F. ) ;
#16 = APPROVAL_PERSON_ORGANIZATION ( #120, #119, #106 ) ;
#17 = CARTESIAN_POINT ( 'NONE',  ( 0.0000000000000000000, 0.0000000000000000000, 0.0000000000000000000 ) ) ;
#18 = ADVANCED_FACE ( 'NONE', ( #111 ), #169, .F. ) ;
#19 = DIRECTION ( 'NONE',  ( -3.491481338843133355E-15, 1.224646799147353207E-16, -1.000000000000000000 ) ) ;
#20 = PLANE ( 'NONE',  #82 ) ;
#21 = DIRECTION ( 'NONE',  ( -3.491481338843133355E-15, 1.224646799147353207E-16, -1.000000000000000000 ) ) ;
#22 = APPROVAL_ROLE ( '' ) ;
#23 = ADVANCED_FACE ( 'NONE', ( #127, #95 ), #185, .T. ) ;
#24 = APPROVAL_STATUS ( 'not_yet_approved' ) ;
#25 = PERSON_AND_ORGANIZATION_ROLE ( 'creator' ) ;
#26 = LOCAL_TIME ( 15, 58, 59.00000000000000000, #122 ) ;
#27 = PERSON_AND_ORGANIZATION ( #132, #105 ) ;
#28 = EDGE_CURVE ( 'NONE', #38, #38, #72, .T. ) ;
#29 = DATE_AND_TIME ( #166, #60 ) ;
#30 = EDGE_LOOP ( 'NONE', ( #92 ) ) ;
#31 = CC_DESIGN_SECURITY_CLASSIFICATION ( #49, ( #76 ) ) ;
#32 = PRODUCT_DEFINITION_SHAPE ( 'NONE', 'NONE',  #77 ) ;
#33 = EDGE_LOOP ( 'NONE', ( #183 ) ) ;
#34 = CARTESIAN_POINT ( 'NONE',  ( -5.344752153297438582E-31, 1.874686696432521547E-32, -1.530797857584531068E-16 ) ) ;
#35 = CARTESIAN_POINT ( 'NONE',  ( 2.339292497024899474E-13, -8.205133554287267548E-15, 67.00000000000000000 ) ) ;
#36 = DIRECTION ( 'NONE',  ( -3.491481338843133355E-15, 1.224646799147353207E-16, -1.000000000000000000 ) ) ;
#37 = AXIS2_PLACEMENT_3D ( 'NONE', #40, #9, #176 ) ;
#38 = VERTEX_POINT ( 'NONE', #85 ) ;
#39 = DIRECTION ( 'NONE',  ( 3.491481338843133355E-15, -1.224646799147353207E-16, 1.000000000000000000 ) ) ;
#40 = CARTESIAN_POINT ( 'NONE',  ( 2.321835090330683366E-13, -8.143901214329899974E-15, 66.50000000000000000 ) ) ;
#41 = APPLICATION_CONTEXT ( 'configuration controlled 3d designs of mechanical parts and assemblies' ) ;
#42 = CARTESIAN_POINT ( 'NONE',  ( 0.0000000000000000000, 0.0000000000000000000, 0.0000000000000000000 ) ) ;
#43 = DATE_AND_TIME ( #133, #177 ) ;
#44 = DIRECTION ( 'NONE',  ( 0.0000000000000000000, 0.0000000000000000000, 1.000000000000000000 ) ) ;
#45 = ORIENTED_EDGE ( 'NONE', *, *, #28, .T. ) ;
#46 = EDGE_LOOP ( 'NONE', ( #151 ) ) ;
#47 = AXIS2_PLACEMENT_3D ( 'NONE', #78, #125, #187 ) ;
#48 = EDGE_CURVE ( 'NONE', #87, #87, #174, .T. ) ;
#49 = SECURITY_CLASSIFICATION ( '', '', #57 ) ;
#50 = CC_DESIGN_PERSON_AND_ORGANIZATION_ASSIGNMENT ( #75, #25, ( #77 ) ) ;
#51 = CARTESIAN_POINT ( 'NONE',  ( 7.681258945454893382E-14, -2.694222958124176809E-15, 22.00000000000000000 ) ) ;
#52 = CARTESIAN_POINT ( 'NONE',  ( 7.681258945454893382E-14, 4.499999999999992006, 22.00000000000000000 ) ) ;
#53 = DIRECTION ( 'NONE',  ( 4.275831445896957731E-31, 1.000000000000000000, 1.224646799147353207E-16 ) ) ;
#54 = DIRECTION ( 'NONE',  ( 0.0000000000000000000, 1.000000000000000000, 0.0000000000000000000 ) ) ;
#55 = PERSON_AND_ORGANIZATION_ROLE ( 'creator' ) ;
#56 = APPROVAL_DATE_TIME ( #74, #154 ) ;
#57 = SECURITY_CLASSIFICATION_LEVEL ( 'unclassified' ) ;
#58 = APPROVAL_DATE_TIME ( #178, #195 ) ;
#59 = CLOSED_SHELL ( 'NONE', ( #18, #134, #168 ) ) ;
#60 = LOCAL_TIME ( 15, 58, 59.00000000000000000, #13 ) ;
#61 = APPLICATION_CONTEXT ( 'configuration controlled 3d designs of mechanical parts and assemblies' ) ;
#62 = ORIENTED_EDGE ( 'NONE', *, *, #48, .F. ) ;
#63 = CLOSED_SHELL ( 'NONE', ( #15, #69, #23, #186 ) ) ;
#64 = EDGE_LOOP ( 'NONE', ( #45 ) ) ;
#65 = CC_DESIGN_DATE_AND_TIME_ASSIGNMENT ( #43, #198, ( #77 ) ) ;
#66 = AXIS2_PLACEMENT_3D ( 'NONE', #112, #39, #156 ) ;
#67 = DIRECTION ( 'NONE',  ( -3.491481338843133355E-15, 1.224646799147353207E-16, -1.000000000000000000 ) ) ;
#68 = VERTEX_POINT ( 'NONE', #131 ) ;
#69 = ADVANCED_FACE ( 'NONE', ( #83, #6 ), #143, .T. ) ;
#70 = PERSON_AND_ORGANIZATION ( #132, #105 ) ;
#71 = APPROVAL_STATUS ( 'not_yet_approved' ) ;
#72 = CIRCLE ( 'NONE', #37, 4.500000000000000000 ) ;
#73 = APPLICATION_PROTOCOL_DEFINITION ( 'international standard', 'config_control_design', 1994, #41 ) ;
#74 = DATE_AND_TIME ( #179, #101 ) ;
#75 = PERSON_AND_ORGANIZATION ( #132, #105 ) ;
#76 = PRODUCT_DEFINITION_FORMATION_WITH_SPECIFIED_SOURCE ( 'ANY', '', #184, .NOT_KNOWN. ) ;
#77 = PRODUCT_DEFINITION ( 'UNKNOWN', '', #76, #172 ) ;
#78 = CARTESIAN_POINT ( 'NONE',  ( 7.681258945454893382E-14, 3.374459510989171954E-32, 22.00000000000000000 ) ) ;
#79 = PRODUCT_RELATED_PRODUCT_CATEGORY ( 'detail', '', ( #184 ) ) ;
#80 = EDGE_LOOP ( 'NONE', ( #93 ) ) ;
#81 = DIRECTION ( 'NONE',  ( 0.0000000000000000000, 1.000000000000000000, 0.0000000000000000000 ) ) ;
#82 = AXIS2_PLACEMENT_3D ( 'NONE', #128, #4, #170 ) ;
#83 = FACE_OUTER_BOUND ( 'NONE', #30, .T. ) ;
#84 = CARTESIAN_POINT ( 'NONE',  ( 7.681258945454893382E-14, -2.694222958124176809E-15, 22.00000000000000000 ) ) ;
#85 = CARTESIAN_POINT ( 'NONE',  ( 2.321835090330683366E-13, 4.499999999999992006, 66.50000000000000000 ) ) ;
#86 = CIRCLE ( 'NONE', #201, 3.999999999999999112 ) ;
#87 = VERTEX_POINT ( 'NONE', #145 ) ;
#88 = SHAPE_DEFINITION_REPRESENTATION ( #32, #104 ) ;
#89 = EDGE_CURVE ( 'NONE', #191, #191, #194, .T. ) ;
#90 = PERSON_AND_ORGANIZATION_ROLE ( 'design_supplier' ) ;
#91 = MECHANICAL_CONTEXT ( 'NONE', #41, 'mechanical' ) ;
#92 = ORIENTED_EDGE ( 'NONE', *, *, #89, .F. ) ;
#93 = ORIENTED_EDGE ( 'NONE', *, *, #89, .T. ) ;
#94 = CIRCLE ( 'NONE', #157, 4.499999999999994671 ) ;
#95 = FACE_BOUND ( 'NONE', #141, .T. ) ;
#96 = AXIS2_PLACEMENT_3D ( 'NONE', #17, #190, #97 ) ;
#97 = DIRECTION ( 'NONE',  ( 4.275831445896958607E-31, 1.000000000000000000, 1.224646799147352961E-16 ) ) ;
#98 = EDGE_CURVE ( 'NONE', #68, #68, #86, .T. ) ;
#99 = CYLINDRICAL_SURFACE ( 'NONE', #117, 4.499999999999993783 ) ;
#100 = DIRECTION ( 'NONE',  ( -3.491481338843133355E-15, 1.224646799147353207E-16, -1.000000000000000000 ) ) ;
#101 = LOCAL_TIME ( 15, 58, 59.00000000000000000, #10 ) ;
#102 = PERSON_AND_ORGANIZATION ( #132, #105 ) ;
#103 = PERSON_AND_ORGANIZATION_ROLE ( 'design_owner' ) ;
#104 = ADVANCED_BREP_SHAPE_REPRESENTATION ( '45661', ( #137, #138, #8 ), #197 ) ;
#105 = ORGANIZATION ( 'UNSPECIFIED', 'UNSPECIFIED', '' ) ;
#106 = APPROVAL_ROLE ( '' ) ;
#107 = CALENDAR_DATE ( 2021, 16, 11 ) ;
#108 = EDGE_LOOP ( 'NONE', ( #167 ) ) ;
#109 = PLANE ( 'NONE',  #47 ) ;
#110 = CC_DESIGN_PERSON_AND_ORGANIZATION_ASSIGNMENT ( #27, #181, ( #49 ) ) ;
#111 = FACE_OUTER_BOUND ( 'NONE', #33, .T. ) ;
#112 = CARTESIAN_POINT ( 'NONE',  ( 7.681258945454893382E-14, 3.374459510989171954E-32, 22.00000000000000000 ) ) ;
#113 = VERTEX_POINT ( 'NONE', #171 ) ;
#114 = PLANE ( 'NONE',  #66 ) ;
#115 = CARTESIAN_POINT ( 'NONE',  ( 0.0000000000000000000, 0.0000000000000000000, 0.0000000000000000000 ) ) ;
#116 = DATE_AND_TIME ( #107, #130 ) ;
#117 = AXIS2_PLACEMENT_3D ( 'NONE', #115, #19, #53 ) ;
#118 = PERSON_AND_ORGANIZATION ( #132, #105 ) ;
#119 = APPROVAL ( #164, 'UNSPECIFIED' ) ;
#120 = PERSON_AND_ORGANIZATION ( #132, #105 ) ;
#121 = APPROVAL_PERSON_ORGANIZATION ( #165, #195, #135 ) ;
#122 = COORDINATED_UNIVERSAL_TIME_OFFSET ( 1, 0, .AHEAD. ) ;
#123 = AXIS2_PLACEMENT_3D ( 'NONE', #159, #100, #7 ) ;
#124 = ORIENTED_EDGE ( 'NONE', *, *, #150, .F. ) ;
#125 = DIRECTION ( 'NONE',  ( 3.491481338843133355E-15, -1.224646799147353207E-16, 1.000000000000000000 ) ) ;
#126 = ORIENTED_EDGE ( 'NONE', *, *, #98, .T. ) ;
#127 = FACE_OUTER_BOUND ( 'NONE', #46, .T. ) ;
#128 = CARTESIAN_POINT ( 'NONE',  ( 2.339292497024899474E-13, 2.999519565323702626E-32, 67.00000000000000000 ) ) ;
#129 = DIRECTION ( 'NONE',  ( 0.0000000000000000000, 1.000000000000000000, 0.0000000000000000000 ) ) ;
#130 = LOCAL_TIME ( 15, 58, 59.00000000000000000, #196 ) ;
#131 = CARTESIAN_POINT ( 'NONE',  ( 2.339292497024899474E-13, 3.999999999999991562, 67.00000000000000000 ) ) ;
#132 = PERSON ( 'UNSPECIFIED', 'UNSPECIFIED', 'UNSPECIFIED', ('UNSPECIFIED'), ('UNSPECIFIED'), ('UNSPECIFIED') ) ;
#133 = CALENDAR_DATE ( 2021, 16, 11 ) ;
#134 = ADVANCED_FACE ( 'NONE', ( #193, #158 ), #99, .T. ) ;
#135 = APPROVAL_ROLE ( '' ) ;
#136 = CC_DESIGN_APPROVAL ( #119, ( #77 ) ) ;
#137 = MANIFOLD_SOLID_BREP ( 'Corps-Déplacer/Copier1[1]', #63 ) ;
#138 = MANIFOLD_SOLID_BREP ( 'Corps-Déplacer/Copier1[2]', #59 ) ;
#139 = CC_DESIGN_APPROVAL ( #154, ( #49 ) ) ;
#140 = EDGE_LOOP ( 'NONE', ( #62 ) ) ;
#141 = EDGE_LOOP ( 'NONE', ( #126 ) ) ;
#142 = FACE_OUTER_BOUND ( 'NONE', #3, .T. ) ;
#143 = CYLINDRICAL_SURFACE ( 'NONE', #96, 4.499999999999997335 ) ;
#144 = DIRECTION ( 'NONE',  ( -3.491481338843133355E-15, 1.224646799147353207E-16, -1.000000000000000000 ) ) ;
#145 = CARTESIAN_POINT ( 'NONE',  ( 8.551737199941402409E-31, 4.499999999999992006, 2.449314880994017066E-16 ) ) ;
#146 = DIRECTION ( 'NONE',  ( -4.275831445896958607E-31, -1.000000000000000000, -1.224646799147353207E-16 ) ) ;
#147 = APPROVAL_DATE_TIME ( #116, #119 ) ;
#148 = CC_DESIGN_DATE_AND_TIME_ASSIGNMENT ( #29, #162, ( #49 ) ) ;
#149 = COORDINATED_UNIVERSAL_TIME_OFFSET ( 1, 0, .AHEAD. ) ;
#150 = EDGE_CURVE ( 'NONE', #113, #113, #94, .T. ) ;
#151 = ORIENTED_EDGE ( 'NONE', *, *, #28, .F. ) ;
#152 = CC_DESIGN_PERSON_AND_ORGANIZATION_ASSIGNMENT ( #70, #55, ( #76 ) ) ;
#153 = UNCERTAINTY_MEASURE_WITH_UNIT (LENGTH_MEASURE( 1.000000000000000082E-05 ), #5, 'distance_accuracy_value', 'NONE');
#154 = APPROVAL ( #24, 'UNSPECIFIED' ) ;
#155 = DIRECTION ( 'NONE',  ( 4.275831445896958607E-31, 1.000000000000000000, 1.224646799147352961E-16 ) ) ;
#156 = DIRECTION ( 'NONE',  ( -4.275831445896958607E-31, -1.000000000000000000, -1.224646799147353207E-16 ) ) ;
#157 = AXIS2_PLACEMENT_3D ( 'NONE', #84, #21, #81 ) ;
#158 = FACE_OUTER_BOUND ( 'NONE', #108, .T. ) ;
#159 = CARTESIAN_POINT ( 'NONE',  ( 2.339292497024899474E-13, -8.205133554287267548E-15, 67.00000000000000000 ) ) ;
#160 = CARTESIAN_POINT ( 'NONE',  ( -1.068950430659487716E-30, 3.749373392865043095E-32, -3.061595715169062135E-16 ) ) ;
#161 = AXIS2_PLACEMENT_3D ( 'NONE', #160, #36, #155 ) ;
#162 = DATE_TIME_ROLE ( 'classification_date' ) ;
#163 = PERSON_AND_ORGANIZATION ( #132, #105 ) ;
#164 = APPROVAL_STATUS ( 'not_yet_approved' ) ;
#165 = PERSON_AND_ORGANIZATION ( #132, #105 ) ;
#166 = CALENDAR_DATE ( 2021, 16, 11 ) ;
#167 = ORIENTED_EDGE ( 'NONE', *, *, #150, .T. ) ;
#168 = ADVANCED_FACE ( 'NONE', ( #175 ), #114, .T. ) ;
#169 = PLANE ( 'NONE',  #12 ) ;
#170 = DIRECTION ( 'NONE',  ( 4.275831445896958607E-31, 1.000000000000000000, 1.224646799147353207E-16 ) ) ;
#171 = CARTESIAN_POINT ( 'NONE',  ( 7.681258945454893382E-14, 4.499999999999992006, 22.00000000000000000 ) ) ;
#172 = DESIGN_CONTEXT ( 'detailed design', #61, 'design' ) ;
#173 =( NAMED_UNIT ( * ) SI_UNIT ( $, .STERADIAN. ) SOLID_ANGLE_UNIT ( ) );
#174 = CIRCLE ( 'NONE', #161, 4.499999999999992006 ) ;
#175 = FACE_OUTER_BOUND ( 'NONE', #2, .T. ) ;
#176 = DIRECTION ( 'NONE',  ( 0.0000000000000000000, 1.000000000000000000, 0.0000000000000000000 ) ) ;
#177 = LOCAL_TIME ( 15, 58, 59.00000000000000000, #149 ) ;
#178 = DATE_AND_TIME ( #200, #26 ) ;
#179 = CALENDAR_DATE ( 2021, 16, 11 ) ;
#180 = AXIS2_PLACEMENT_3D ( 'NONE', #51, #67, #54 ) ;
#181 = PERSON_AND_ORGANIZATION_ROLE ( 'classification_officer' ) ;
#182 = CC_DESIGN_PERSON_AND_ORGANIZATION_ASSIGNMENT ( #118, #103, ( #184 ) ) ;
#183 = ORIENTED_EDGE ( 'NONE', *, *, #48, .T. ) ;
#184 = PRODUCT ( '45661', '45661', '', ( #91 ) ) ;
#185 = CONICAL_SURFACE ( 'NONE', #123, 3.999999999999999112, 0.7853981633974482790 ) ;
#186 = ADVANCED_FACE ( 'NONE', ( #142 ), #20, .F. ) ;
#187 = DIRECTION ( 'NONE',  ( -4.275831445896958607E-31, -1.000000000000000000, -1.224646799147353207E-16 ) ) ;
#188 = FACE_OUTER_BOUND ( 'NONE', #80, .T. ) ;
#189 = APPROVAL_PERSON_ORGANIZATION ( #102, #154, #22 ) ;
#190 = DIRECTION ( 'NONE',  ( -3.491481338843133355E-15, 1.224646799147353207E-16, -1.000000000000000000 ) ) ;
#191 = VERTEX_POINT ( 'NONE', #52 ) ;
#192 =( NAMED_UNIT ( * ) PLANE_ANGLE_UNIT ( ) SI_UNIT ( $, .RADIAN. ) );
#193 = FACE_OUTER_BOUND ( 'NONE', #140, .T. ) ;
#194 = CIRCLE ( 'NONE', #180, 4.499999999999994671 ) ;
#195 = APPROVAL ( #71, 'UNSPECIFIED' ) ;
#196 = COORDINATED_UNIVERSAL_TIME_OFFSET ( 1, 0, .AHEAD. ) ;
#197 =( GEOMETRIC_REPRESENTATION_CONTEXT ( 3 ) GLOBAL_UNCERTAINTY_ASSIGNED_CONTEXT ( ( #153 ) ) GLOBAL_UNIT_ASSIGNED_CONTEXT ( ( #5, #192, #173 ) ) REPRESENTATION_CONTEXT ( 'NONE', 'WORKASPACE' ) );
#198 = DATE_TIME_ROLE ( 'creation_date' ) ;
#199 = APPLICATION_PROTOCOL_DEFINITION ( 'international standard', 'config_control_design', 1994, #61 ) ;
#200 = CALENDAR_DATE ( 2021, 16, 11 ) ;
#201 = AXIS2_PLACEMENT_3D ( 'NONE', #35, #144, #129 ) ;
#202 = DIRECTION ( 'NONE',  ( 3.491481338843133355E-15, -1.224646799147353207E-16, 1.000000000000000000 ) ) ;
#203 = ORIENTED_EDGE ( 'NONE', *, *, #98, .F. ) ;
ENDSEC;
END-ISO-10303-21;
