ISO-10303-21;
HEADER;
FILE_DESCRIPTION (( 'STEP AP203' ),
    '1' );
FILE_NAME ('45659.step',
    '2021-11-16T14:58:59',
    ( '' ),
    ( '' ),
    'SwSTEP 2.0',
    'SolidWorks 2019',
    '' );
FILE_SCHEMA (( 'CONFIG_CONTROL_DESIGN' ));
ENDSEC;

DATA;
#1 = APPROVAL_ROLE ( '' ) ;
#2 = DATE_AND_TIME ( #72, #61 ) ;
#3 = MANIFOLD_SOLID_BREP ( 'Corps-Déplacer/Copier1[1]', #29 ) ;
#4 = FACE_BOUND ( 'NONE', #62, .T. ) ;
#5 = APPLICATION_CONTEXT ( 'configuration controlled 3d designs of mechanical parts and assemblies' ) ;
#6 = DIRECTION ( 'NONE',  ( 0.0000000000000000000, 1.000000000000000000, 0.0000000000000000000 ) ) ;
#7 = FACE_OUTER_BOUND ( 'NONE', #16, .T. ) ;
#8 = CC_DESIGN_DATE_AND_TIME_ASSIGNMENT ( #137, #71, ( #14 ) ) ;
#9 = DIRECTION ( 'NONE',  ( 3.491481338843133355E-15, -1.224646799147353207E-16, 1.000000000000000000 ) ) ;
#10 = CYLINDRICAL_SURFACE ( 'NONE', #54, 2.499999999999996891 ) ;
#11 = LOCAL_TIME ( 15, 58, 59.00000000000000000, #30 ) ;
#12 = DIRECTION ( 'NONE',  ( 0.0000000000000000000, 0.0000000000000000000, 1.000000000000000000 ) ) ;
#13 = PERSON_AND_ORGANIZATION ( #156, #136 ) ;
#14 = SECURITY_CLASSIFICATION ( '', '', #24 ) ;
#15 = COORDINATED_UNIVERSAL_TIME_OFFSET ( 1, 0, .AHEAD. ) ;
#16 = EDGE_LOOP ( 'NONE', ( #110 ) ) ;
#17 = ORIENTED_EDGE ( 'NONE', *, *, #200, .F. ) ;
#18 = AXIS2_PLACEMENT_3D ( 'NONE', #175, #65, #19 ) ;
#19 = DIRECTION ( 'NONE',  ( 4.275831445896958607E-31, 1.000000000000000000, 1.224646799147353207E-16 ) ) ;
#20 = DIRECTION ( 'NONE',  ( 4.275831445896959482E-31, 1.000000000000000000, 1.224646799147353207E-16 ) ) ;
#21 = CARTESIAN_POINT ( 'NONE',  ( 4.888073874380386697E-14, 2.499999999999992450, 14.00000000000000000 ) ) ;
#22 = ADVANCED_FACE ( 'NONE', ( #157, #63 ), #73, .T. ) ;
#23 = PRODUCT_RELATED_PRODUCT_CATEGORY ( 'detail', '', ( #162 ) ) ;
#24 = SECURITY_CLASSIFICATION_LEVEL ( 'unclassified' ) ;
#25 = AXIS2_PLACEMENT_3D ( 'NONE', #76, #52, #201 ) ;
#26 = AXIS2_PLACEMENT_3D ( 'NONE', #132, #67, #148 ) ;
#27 = APPROVAL_DATE_TIME ( #168, #192 ) ;
#28 = DIRECTION ( 'NONE',  ( 1.000000000000000000, 0.0000000000000000000, 0.0000000000000000000 ) ) ;
#29 = CLOSED_SHELL ( 'NONE', ( #119, #151, #47, #56 ) ) ;
#30 = COORDINATED_UNIVERSAL_TIME_OFFSET ( 1, 0, .AHEAD. ) ;
#31 = DIRECTION ( 'NONE',  ( -3.491481338843133355E-15, 1.224646799147353207E-16, -1.000000000000000000 ) ) ;
#32 = EDGE_LOOP ( 'NONE', ( #48 ) ) ;
#33 = AXIS2_PLACEMENT_3D ( 'NONE', #51, #129, #198 ) ;
#34 = DIRECTION ( 'NONE',  ( 4.275831445896958607E-31, 1.000000000000000000, 1.224646799147352961E-16 ) ) ;
#35 = DIRECTION ( 'NONE',  ( -3.491481338843133355E-15, 1.224646799147353207E-16, -1.000000000000000000 ) ) ;
#36 = AXIS2_PLACEMENT_3D ( 'NONE', #159, #173, #121 ) ;
#37 = CARTESIAN_POINT ( 'NONE',  ( 2.199633243471174140E-13, 1.999999999999992228, 63.00000000000000000 ) ) ;
#38 = PERSON_AND_ORGANIZATION ( #156, #136 ) ;
#39 = PERSON_AND_ORGANIZATION ( #156, #136 ) ;
#40 = CC_DESIGN_PERSON_AND_ORGANIZATION_ASSIGNMENT ( #38, #138, ( #120 ) ) ;
#41 = CALENDAR_DATE ( 2021, 16, 11 ) ;
#42 = COORDINATED_UNIVERSAL_TIME_OFFSET ( 1, 0, .AHEAD. ) ;
#43 = PRODUCT_DEFINITION ( 'UNKNOWN', '', #120, #155 ) ;
#44 = FACE_OUTER_BOUND ( 'NONE', #92, .T. ) ;
#45 = APPROVAL_PERSON_ORGANIZATION ( #186, #106, #1 ) ;
#46 = ORIENTED_EDGE ( 'NONE', *, *, #170, .T. ) ;
#47 = ADVANCED_FACE ( 'NONE', ( #141, #4 ), #153, .T. ) ;
#48 = ORIENTED_EDGE ( 'NONE', *, *, #200, .T. ) ;
#49 = CIRCLE ( 'NONE', #191, 2.499999999999992450 ) ;
#50 = VERTEX_POINT ( 'NONE', #184 ) ;
#51 = CARTESIAN_POINT ( 'NONE',  ( 4.888073874380386697E-14, 1.874699728327315168E-32, 14.00000000000000000 ) ) ;
#52 = DIRECTION ( 'NONE',  ( -3.491481338843133355E-15, 1.224646799147353207E-16, -1.000000000000000000 ) ) ;
#53 = VERTEX_POINT ( 'NONE', #55 ) ;
#54 = AXIS2_PLACEMENT_3D ( 'NONE', #78, #178, #20 ) ;
#55 = CARTESIAN_POINT ( 'NONE',  ( 4.888073874380386697E-14, 2.499999999999992450, 14.00000000000000000 ) ) ;
#56 = ADVANCED_FACE ( 'NONE', ( #44 ), #195, .F. ) ;
#57 = APPLICATION_PROTOCOL_DEFINITION ( 'international standard', 'config_control_design', 1994, #180 ) ;
#58 = UNCERTAINTY_MEASURE_WITH_UNIT (LENGTH_MEASURE( 1.000000000000000082E-05 ), #164, 'distance_accuracy_value', 'NONE');
#59 = CALENDAR_DATE ( 2021, 16, 11 ) ;
#60 = PERSON_AND_ORGANIZATION_ROLE ( 'creator' ) ;
#61 = LOCAL_TIME ( 15, 58, 59.00000000000000000, #154 ) ;
#62 = EDGE_LOOP ( 'NONE', ( #75 ) ) ;
#63 = FACE_OUTER_BOUND ( 'NONE', #158, .T. ) ;
#64 = CIRCLE ( 'NONE', #25, 2.499999999999993783 ) ;
#65 = DIRECTION ( 'NONE',  ( -3.491481338843133355E-15, 1.224646799147353207E-16, -1.000000000000000000 ) ) ;
#66 = FACE_OUTER_BOUND ( 'NONE', #89, .T. ) ;
#67 = DIRECTION ( 'NONE',  ( -3.491481338843133355E-15, 1.224646799147353207E-16, -1.000000000000000000 ) ) ;
#68 = MECHANICAL_CONTEXT ( 'NONE', #5, 'mechanical' ) ;
#69 = APPLICATION_PROTOCOL_DEFINITION ( 'international standard', 'config_control_design', 1994, #5 ) ;
#70 = CC_DESIGN_APPROVAL ( #106, ( #43 ) ) ;
#71 = DATE_TIME_ROLE ( 'classification_date' ) ;
#72 = CALENDAR_DATE ( 2021, 16, 11 ) ;
#73 = CYLINDRICAL_SURFACE ( 'NONE', #108, 2.499999999999992895 ) ;
#74 = AXIS2_PLACEMENT_3D ( 'NONE', #133, #12, #28 ) ;
#75 = ORIENTED_EDGE ( 'NONE', *, *, #77, .T. ) ;
#76 = CARTESIAN_POINT ( 'NONE',  ( 4.888073874380386697E-14, -1.714505518806294638E-15, 14.00000000000000000 ) ) ;
#77 = EDGE_CURVE ( 'NONE', #130, #130, #160, .T. ) ;
#78 = CARTESIAN_POINT ( 'NONE',  ( 0.0000000000000000000, 0.0000000000000000000, 0.0000000000000000000 ) ) ;
#79 = CARTESIAN_POINT ( 'NONE',  ( 2.182175836776958284E-13, -7.654042494670957804E-15, 62.50000000000000000 ) ) ;
#80 =( NAMED_UNIT ( * ) PLANE_ANGLE_UNIT ( ) SI_UNIT ( $, .RADIAN. ) );
#81 = ADVANCED_FACE ( 'NONE', ( #7 ), #127, .T. ) ;
#82 = APPROVAL_ROLE ( '' ) ;
#83 = CC_DESIGN_APPROVAL ( #192, ( #14 ) ) ;
#84 = DATE_TIME_ROLE ( 'creation_date' ) ;
#85 = APPROVAL_STATUS ( 'not_yet_approved' ) ;
#86 = CC_DESIGN_SECURITY_CLASSIFICATION ( #14, ( #120 ) ) ;
#87 = CC_DESIGN_DATE_AND_TIME_ASSIGNMENT ( #118, #84, ( #43 ) ) ;
#88 = PERSON_AND_ORGANIZATION ( #156, #136 ) ;
#89 = EDGE_LOOP ( 'NONE', ( #107 ) ) ;
#90 = CARTESIAN_POINT ( 'NONE',  ( 0.0000000000000000000, 0.0000000000000000000, 0.0000000000000000000 ) ) ;
#91 = CC_DESIGN_PERSON_AND_ORGANIZATION_ASSIGNMENT ( #103, #188, ( #14 ) ) ;
#92 = EDGE_LOOP ( 'NONE', ( #111 ) ) ;
#93 = FACE_OUTER_BOUND ( 'NONE', #32, .T. ) ;
#94 = CC_DESIGN_PERSON_AND_ORGANIZATION_ASSIGNMENT ( #88, #203, ( #162 ) ) ;
#95 = DIRECTION ( 'NONE',  ( -4.275831445896958607E-31, -1.000000000000000000, -1.224646799147353207E-16 ) ) ;
#96 = CC_DESIGN_PERSON_AND_ORGANIZATION_ASSIGNMENT ( #13, #101, ( #120 ) ) ;
#97 = CC_DESIGN_APPROVAL ( #100, ( #120 ) ) ;
#98 = PLANE ( 'NONE',  #140 ) ;
#99 = DIRECTION ( 'NONE',  ( -4.275831445896958607E-31, -1.000000000000000000, -1.224646799147353207E-16 ) ) ;
#100 = APPROVAL ( #85, 'UNSPECIFIED' ) ;
#101 = PERSON_AND_ORGANIZATION_ROLE ( 'design_supplier' ) ;
#102 = APPROVAL_PERSON_ORGANIZATION ( #39, #100, #172 ) ;
#103 = PERSON_AND_ORGANIZATION ( #156, #136 ) ;
#104 = APPROVAL_DATE_TIME ( #185, #106 ) ;
#105 = APPROVAL_DATE_TIME ( #2, #100 ) ;
#106 = APPROVAL ( #167, 'UNSPECIFIED' ) ;
#107 = ORIENTED_EDGE ( 'NONE', *, *, #134, .T. ) ;
#108 = AXIS2_PLACEMENT_3D ( 'NONE', #90, #31, #109 ) ;
#109 = DIRECTION ( 'NONE',  ( 4.275831445896959482E-31, 1.000000000000000000, 1.224646799147353454E-16 ) ) ;
#110 = ORIENTED_EDGE ( 'NONE', *, *, #144, .F. ) ;
#111 = ORIENTED_EDGE ( 'NONE', *, *, #77, .F. ) ;
#112 = FACE_OUTER_BOUND ( 'NONE', #174, .T. ) ;
#113 = FACE_OUTER_BOUND ( 'NONE', #193, .T. ) ;
#114 = AXIS2_PLACEMENT_3D ( 'NONE', #197, #9, #95 ) ;
#115 = VERTEX_POINT ( 'NONE', #116 ) ;
#116 = CARTESIAN_POINT ( 'NONE',  ( 2.182175836776958284E-13, 2.499999999999992450, 62.50000000000000000 ) ) ;
#117 = CALENDAR_DATE ( 2021, 16, 11 ) ;
#118 = DATE_AND_TIME ( #117, #196 ) ;
#119 = ADVANCED_FACE ( 'NONE', ( #66 ), #165, .F. ) ;
#120 = PRODUCT_DEFINITION_FORMATION_WITH_SPECIFIED_SOURCE ( 'ANY', '', #162, .NOT_KNOWN. ) ;
#121 = DIRECTION ( 'NONE',  ( 0.0000000000000000000, 1.000000000000000000, 0.0000000000000000000 ) ) ;
#122 = EDGE_LOOP ( 'NONE', ( #17 ) ) ;
#123 = EDGE_LOOP ( 'NONE', ( #142 ) ) ;
#124 = APPROVAL_PERSON_ORGANIZATION ( #190, #192, #82 ) ;
#125 = ORIENTED_EDGE ( 'NONE', *, *, #144, .T. ) ;
#126 = PRODUCT_DEFINITION_SHAPE ( 'NONE', 'NONE',  #43 ) ;
#127 = PLANE ( 'NONE',  #114 ) ;
#128 = DIRECTION ( 'NONE',  ( -3.491481338843133355E-15, 1.224646799147353207E-16, -1.000000000000000000 ) ) ;
#129 = DIRECTION ( 'NONE',  ( 3.491481338843133355E-15, -1.224646799147353207E-16, 1.000000000000000000 ) ) ;
#130 = VERTEX_POINT ( 'NONE', #37 ) ;
#131 = CIRCLE ( 'NONE', #171, 2.500000000000000000 ) ;
#132 = CARTESIAN_POINT ( 'NONE',  ( 4.888073874380386697E-14, -1.714505518806294638E-15, 14.00000000000000000 ) ) ;
#133 = CARTESIAN_POINT ( 'NONE',  ( 0.0000000000000000000, 0.0000000000000000000, 0.0000000000000000000 ) ) ;
#134 = EDGE_CURVE ( 'NONE', #199, #199, #64, .T. ) ;
#135 = MANIFOLD_SOLID_BREP ( 'Corps-Déplacer/Copier1[2]', #194 ) ;
#136 = ORGANIZATION ( 'UNSPECIFIED', 'UNSPECIFIED', '' ) ;
#137 = DATE_AND_TIME ( #41, #177 ) ;
#138 = PERSON_AND_ORGANIZATION_ROLE ( 'creator' ) ;
#139 = CC_DESIGN_PERSON_AND_ORGANIZATION_ASSIGNMENT ( #189, #60, ( #43 ) ) ;
#140 = AXIS2_PLACEMENT_3D ( 'NONE', #147, #145, #99 ) ;
#141 = FACE_OUTER_BOUND ( 'NONE', #123, .T. ) ;
#142 = ORIENTED_EDGE ( 'NONE', *, *, #170, .F. ) ;
#143 = CIRCLE ( 'NONE', #26, 2.499999999999993783 ) ;
#144 = EDGE_CURVE ( 'NONE', #53, #53, #143, .T. ) ;
#145 = DIRECTION ( 'NONE',  ( 3.491481338843133355E-15, -1.224646799147353207E-16, 1.000000000000000000 ) ) ;
#146 = DIRECTION ( 'NONE',  ( 0.0000000000000000000, 1.000000000000000000, 0.0000000000000000000 ) ) ;
#147 = CARTESIAN_POINT ( 'NONE',  ( -4.275851038235231709E-31, 1.499766654729047859E-32, -1.224652410616060037E-16 ) ) ;
#148 = DIRECTION ( 'NONE',  ( 0.0000000000000000000, 1.000000000000000000, 0.0000000000000000000 ) ) ;
#149 =( GEOMETRIC_REPRESENTATION_CONTEXT ( 3 ) GLOBAL_UNCERTAINTY_ASSIGNED_CONTEXT ( ( #58 ) ) GLOBAL_UNIT_ASSIGNED_CONTEXT ( ( #164, #80, #163 ) ) REPRESENTATION_CONTEXT ( 'NONE', 'WORKASPACE' ) );
#150 = COORDINATED_UNIVERSAL_TIME_OFFSET ( 1, 0, .AHEAD. ) ;
#151 = ADVANCED_FACE ( 'NONE', ( #113, #112 ), #10, .T. ) ;
#152 = SHAPE_DEFINITION_REPRESENTATION ( #126, #183 ) ;
#153 = CONICAL_SURFACE ( 'NONE', #36, 2.000000000000000000, 0.7853981633974479459 ) ;
#154 = COORDINATED_UNIVERSAL_TIME_OFFSET ( 1, 0, .AHEAD. ) ;
#155 = DESIGN_CONTEXT ( 'detailed design', #180, 'design' ) ;
#156 = PERSON ( 'UNSPECIFIED', 'UNSPECIFIED', 'UNSPECIFIED', ('UNSPECIFIED'), ('UNSPECIFIED'), ('UNSPECIFIED') ) ;
#157 = FACE_OUTER_BOUND ( 'NONE', #122, .T. ) ;
#158 = EDGE_LOOP ( 'NONE', ( #125 ) ) ;
#159 = CARTESIAN_POINT ( 'NONE',  ( 2.199633243471174140E-13, -7.715274834628325378E-15, 63.00000000000000000 ) ) ;
#160 = CIRCLE ( 'NONE', #187, 2.000000000000000000 ) ;
#161 = ADVANCED_FACE ( 'NONE', ( #93 ), #98, .F. ) ;
#162 = PRODUCT ( '45659', '45659', '', ( #68 ) ) ;
#163 =( NAMED_UNIT ( * ) SI_UNIT ( $, .STERADIAN. ) SOLID_ANGLE_UNIT ( ) );
#164 =( LENGTH_UNIT ( ) NAMED_UNIT ( * ) SI_UNIT ( .MILLI., .METRE. ) );
#165 = PLANE ( 'NONE',  #33 ) ;
#166 = CARTESIAN_POINT ( 'NONE',  ( -8.551702076470463418E-31, 2.999533309458095718E-32, -2.449304821232120074E-16 ) ) ;
#167 = APPROVAL_STATUS ( 'not_yet_approved' ) ;
#168 = DATE_AND_TIME ( #202, #182 ) ;
#169 = APPROVAL_STATUS ( 'not_yet_approved' ) ;
#170 = EDGE_CURVE ( 'NONE', #115, #115, #131, .T. ) ;
#171 = AXIS2_PLACEMENT_3D ( 'NONE', #79, #181, #6 ) ;
#172 = APPROVAL_ROLE ( '' ) ;
#173 = DIRECTION ( 'NONE',  ( -3.491481338843133355E-15, 1.224646799147353207E-16, -1.000000000000000000 ) ) ;
#174 = EDGE_LOOP ( 'NONE', ( #46 ) ) ;
#175 = CARTESIAN_POINT ( 'NONE',  ( 2.199633243471174140E-13, 1.499759782661846113E-32, 63.00000000000000000 ) ) ;
#176 = ORIENTED_EDGE ( 'NONE', *, *, #134, .F. ) ;
#177 = LOCAL_TIME ( 15, 58, 59.00000000000000000, #42 ) ;
#178 = DIRECTION ( 'NONE',  ( -3.491481338843133355E-15, 1.224646799147353207E-16, -1.000000000000000000 ) ) ;
#179 = CARTESIAN_POINT ( 'NONE',  ( 2.199633243471174140E-13, -7.715274834628325378E-15, 63.00000000000000000 ) ) ;
#180 = APPLICATION_CONTEXT ( 'configuration controlled 3d designs of mechanical parts and assemblies' ) ;
#181 = DIRECTION ( 'NONE',  ( -3.491481338843133355E-15, 1.224646799147353207E-16, -1.000000000000000000 ) ) ;
#182 = LOCAL_TIME ( 15, 58, 59.00000000000000000, #150 ) ;
#183 = ADVANCED_BREP_SHAPE_REPRESENTATION ( '45659', ( #3, #135, #74 ), #149 ) ;
#184 = CARTESIAN_POINT ( 'NONE',  ( 2.137876538271900256E-31, 2.499999999999992450, 6.123121766362532060E-17 ) ) ;
#185 = DATE_AND_TIME ( #59, #11 ) ;
#186 = PERSON_AND_ORGANIZATION ( #156, #136 ) ;
#187 = AXIS2_PLACEMENT_3D ( 'NONE', #179, #128, #146 ) ;
#188 = PERSON_AND_ORGANIZATION_ROLE ( 'classification_officer' ) ;
#189 = PERSON_AND_ORGANIZATION ( #156, #136 ) ;
#190 = PERSON_AND_ORGANIZATION ( #156, #136 ) ;
#191 = AXIS2_PLACEMENT_3D ( 'NONE', #166, #35, #34 ) ;
#192 = APPROVAL ( #169, 'UNSPECIFIED' ) ;
#193 = EDGE_LOOP ( 'NONE', ( #176 ) ) ;
#194 = CLOSED_SHELL ( 'NONE', ( #161, #22, #81 ) ) ;
#195 = PLANE ( 'NONE',  #18 ) ;
#196 = LOCAL_TIME ( 15, 58, 59.00000000000000000, #15 ) ;
#197 = CARTESIAN_POINT ( 'NONE',  ( 4.888073874380386697E-14, 1.874699728327315168E-32, 14.00000000000000000 ) ) ;
#198 = DIRECTION ( 'NONE',  ( -4.275831445896958607E-31, -1.000000000000000000, -1.224646799147353207E-16 ) ) ;
#199 = VERTEX_POINT ( 'NONE', #21 ) ;
#200 = EDGE_CURVE ( 'NONE', #50, #50, #49, .T. ) ;
#201 = DIRECTION ( 'NONE',  ( 0.0000000000000000000, 1.000000000000000000, 0.0000000000000000000 ) ) ;
#202 = CALENDAR_DATE ( 2021, 16, 11 ) ;
#203 = PERSON_AND_ORGANIZATION_ROLE ( 'design_owner' ) ;
ENDSEC;
END-ISO-10303-21;
