ISO-10303-21;
HEADER;
FILE_DESCRIPTION (( 'STEP AP203' ),
    '1' );
FILE_NAME ('45658.step',
    '2021-11-16T14:58:58',
    ( '' ),
    ( '' ),
    'SwSTEP 2.0',
    'SolidWorks 2019',
    '' );
FILE_SCHEMA (( 'CONFIG_CONTROL_DESIGN' ));
ENDSEC;

DATA;
#1 = CC_DESIGN_PERSON_AND_ORGANIZATION_ASSIGNMENT ( #135, #185, ( #92 ) ) ;
#2 = FACE_OUTER_BOUND ( 'NONE', #49, .T. ) ;
#3 = CLOSED_SHELL ( 'NONE', ( #58, #16, #73, #51 ) ) ;
#4 = APPLICATION_PROTOCOL_DEFINITION ( 'international standard', 'config_control_design', 1994, #146 ) ;
#5 = LOCAL_TIME ( 15, 58, 58.00000000000000000, #89 ) ;
#6 = PERSON ( 'UNSPECIFIED', 'UNSPECIFIED', 'UNSPECIFIED', ('UNSPECIFIED'), ('UNSPECIFIED'), ('UNSPECIFIED') ) ;
#7 = CARTESIAN_POINT ( 'NONE',  ( 4.189777606611760026E-14, 1.499759782661853229E-32, 12.00000000000000000 ) ) ;
#8 =( LENGTH_UNIT ( ) NAMED_UNIT ( * ) SI_UNIT ( .MILLI., .METRE. ) );
#9 = COORDINATED_UNIVERSAL_TIME_OFFSET ( 1, 0, .AHEAD. ) ;
#10 = APPROVAL_PERSON_ORGANIZATION ( #154, #44, #15 ) ;
#11 = DATE_AND_TIME ( #162, #75 ) ;
#12 = FACE_OUTER_BOUND ( 'NONE', #176, .T. ) ;
#13 = FACE_OUTER_BOUND ( 'NONE', #106, .T. ) ;
#14 = FACE_OUTER_BOUND ( 'NONE', #64, .T. ) ;
#15 = APPROVAL_ROLE ( '' ) ;
#16 = ADVANCED_FACE ( 'NONE', ( #71, #12 ), #101, .T. ) ;
#17 = EDGE_CURVE ( 'NONE', #45, #45, #138, .T. ) ;
#18 = CARTESIAN_POINT ( 'NONE',  ( 4.189777606611760026E-14, 1.999999999999995337, 12.00000000000000000 ) ) ;
#19 = DIRECTION ( 'NONE',  ( -3.491481338843133355E-15, 1.224646799147353207E-16, -1.000000000000000000 ) ) ;
#20 = AXIS2_PLACEMENT_3D ( 'NONE', #84, #152, #77 ) ;
#21 = DIRECTION ( 'NONE',  ( -3.491481338843133355E-15, 1.224646799147353207E-16, -1.000000000000000000 ) ) ;
#22 = PERSON_AND_ORGANIZATION_ROLE ( 'creator' ) ;
#23 = APPROVAL_PERSON_ORGANIZATION ( #145, #133, #116 ) ;
#24 = APPROVAL_DATE_TIME ( #36, #44 ) ;
#25 = CC_DESIGN_PERSON_AND_ORGANIZATION_ASSIGNMENT ( #114, #100, ( #144 ) ) ;
#26 = DIRECTION ( 'NONE',  ( -3.491481338843133355E-15, 1.224646799147353207E-16, -1.000000000000000000 ) ) ;
#27 = PERSON_AND_ORGANIZATION ( #6, #78 ) ;
#28 = CALENDAR_DATE ( 2021, 16, 11 ) ;
#29 = CC_DESIGN_APPROVAL ( #44, ( #92 ) ) ;
#30 = CARTESIAN_POINT ( 'NONE',  ( 2.137876538271899380E-31, 1.999999999999995337, 6.123121766362532060E-17 ) ) ;
#31 = AXIS2_PLACEMENT_3D ( 'NONE', #164, #39, #87 ) ;
#32 = CARTESIAN_POINT ( 'NONE',  ( 4.189777606611760026E-14, 1.999999999999995337, 12.00000000000000000 ) ) ;
#33 = DIRECTION ( 'NONE',  ( 1.000000000000000000, 0.0000000000000000000, 0.0000000000000000000 ) ) ;
#34 = CARTESIAN_POINT ( 'NONE',  ( 2.182175836776958284E-13, 1.999999999999995337, 62.50000000000000000 ) ) ;
#35 = PERSON_AND_ORGANIZATION_ROLE ( 'creator' ) ;
#36 = DATE_AND_TIME ( #168, #191 ) ;
#37 = DATE_AND_TIME ( #178, #187 ) ;
#38 = AXIS2_PLACEMENT_3D ( 'NONE', #134, #88, #166 ) ;
#39 = DIRECTION ( 'NONE',  ( -3.491481338843133355E-15, 1.224646799147353207E-16, -1.000000000000000000 ) ) ;
#40 = AXIS2_PLACEMENT_3D ( 'NONE', #181, #201, #54 ) ;
#41 = CARTESIAN_POINT ( 'NONE',  ( 4.189777606611760026E-14, -1.469576158976823947E-15, 12.00000000000000000 ) ) ;
#42 = APPROVAL_PERSON_ORGANIZATION ( #53, #141, #72 ) ;
#43 = ORIENTED_EDGE ( 'NONE', *, *, #148, .T. ) ;
#44 = APPROVAL ( #153, 'UNSPECIFIED' ) ;
#45 = VERTEX_POINT ( 'NONE', #34 ) ;
#46 = CC_DESIGN_APPROVAL ( #133, ( #131 ) ) ;
#47 = CYLINDRICAL_SURFACE ( 'NONE', #119, 1.999999999999995781 ) ;
#48 = DIRECTION ( 'NONE',  ( 0.0000000000000000000, 1.000000000000000000, 0.0000000000000000000 ) ) ;
#49 = EDGE_LOOP ( 'NONE', ( #95 ) ) ;
#50 = APPLICATION_CONTEXT ( 'configuration controlled 3d designs of mechanical parts and assemblies' ) ;
#51 = ADVANCED_FACE ( 'NONE', ( #150 ), #103, .F. ) ;
#52 = DATE_TIME_ROLE ( 'classification_date' ) ;
#53 = PERSON_AND_ORGANIZATION ( #6, #78 ) ;
#54 = DIRECTION ( 'NONE',  ( 4.275831445896958607E-31, 1.000000000000000000, 1.224646799147353207E-16 ) ) ;
#55 = CC_DESIGN_SECURITY_CLASSIFICATION ( #144, ( #92 ) ) ;
#56 = COORDINATED_UNIVERSAL_TIME_OFFSET ( 1, 0, .AHEAD. ) ;
#57 = PLANE ( 'NONE',  #169 ) ;
#58 = ADVANCED_FACE ( 'NONE', ( #13 ), #161, .F. ) ;
#59 = CC_DESIGN_DATE_AND_TIME_ASSIGNMENT ( #74, #149, ( #131 ) ) ;
#60 = UNCERTAINTY_MEASURE_WITH_UNIT (LENGTH_MEASURE( 1.000000000000000082E-05 ), #8, 'distance_accuracy_value', 'NONE');
#61 = AXIS2_PLACEMENT_3D ( 'NONE', #189, #63, #112 ) ;
#62 = EDGE_LOOP ( 'NONE', ( #171 ) ) ;
#63 = DIRECTION ( 'NONE',  ( 3.491481338843133355E-15, -1.224646799147353207E-16, 1.000000000000000000 ) ) ;
#64 = EDGE_LOOP ( 'NONE', ( #122 ) ) ;
#65 = MANIFOLD_SOLID_BREP ( 'Corps-Déplacer/Copier1[1]', #3 ) ;
#66 = CIRCLE ( 'NONE', #155, 1.500000000000003109 ) ;
#67 = PERSON_AND_ORGANIZATION_ROLE ( 'design_owner' ) ;
#68 = EDGE_LOOP ( 'NONE', ( #188 ) ) ;
#69 = APPROVAL_STATUS ( 'not_yet_approved' ) ;
#70 = EDGE_CURVE ( 'NONE', #158, #158, #184, .T. ) ;
#71 = FACE_OUTER_BOUND ( 'NONE', #62, .T. ) ;
#72 = APPROVAL_ROLE ( '' ) ;
#73 = ADVANCED_FACE ( 'NONE', ( #14, #117 ), #167, .T. ) ;
#74 = DATE_AND_TIME ( #102, #156 ) ;
#75 = LOCAL_TIME ( 15, 58, 58.00000000000000000, #9 ) ;
#76 = CC_DESIGN_PERSON_AND_ORGANIZATION_ASSIGNMENT ( #86, #35, ( #131 ) ) ;
#77 = DIRECTION ( 'NONE',  ( -4.275831445896958607E-31, -1.000000000000000000, -1.224646799147353207E-16 ) ) ;
#78 = ORGANIZATION ( 'UNSPECIFIED', 'UNSPECIFIED', '' ) ;
#79 = CC_DESIGN_PERSON_AND_ORGANIZATION_ASSIGNMENT ( #27, #22, ( #92 ) ) ;
#80 =( NAMED_UNIT ( * ) PLANE_ANGLE_UNIT ( ) SI_UNIT ( $, .RADIAN. ) );
#81 = CC_DESIGN_DATE_AND_TIME_ASSIGNMENT ( #11, #52, ( #144 ) ) ;
#82 = APPLICATION_PROTOCOL_DEFINITION ( 'international standard', 'config_control_design', 1994, #50 ) ;
#83 = PRODUCT_DEFINITION_SHAPE ( 'NONE', 'NONE',  #131 ) ;
#84 = CARTESIAN_POINT ( 'NONE',  ( 4.189777606611760026E-14, 1.499759782661853229E-32, 12.00000000000000000 ) ) ;
#85 = SECURITY_CLASSIFICATION_LEVEL ( 'unclassified' ) ;
#86 = PERSON_AND_ORGANIZATION ( #6, #78 ) ;
#87 = DIRECTION ( 'NONE',  ( 4.275831445896958607E-31, 1.000000000000000000, 1.224646799147353207E-16 ) ) ;
#88 = DIRECTION ( 'NONE',  ( -3.491481338843133355E-15, 1.224646799147353207E-16, -1.000000000000000000 ) ) ;
#89 = COORDINATED_UNIVERSAL_TIME_OFFSET ( 1, 0, .AHEAD. ) ;
#90 = ADVANCED_BREP_SHAPE_REPRESENTATION ( '45658', ( #65, #139, #197 ), #97 ) ;
#91 = CARTESIAN_POINT ( 'NONE',  ( 2.199633243471174140E-13, 1.499999999999995337, 63.00000000000000000 ) ) ;
#92 = PRODUCT_DEFINITION_FORMATION_WITH_SPECIFIED_SOURCE ( 'ANY', '', #192, .NOT_KNOWN. ) ;
#93 = ORIENTED_EDGE ( 'NONE', *, *, #182, .T. ) ;
#94 = VERTEX_POINT ( 'NONE', #91 ) ;
#95 = ORIENTED_EDGE ( 'NONE', *, *, #148, .F. ) ;
#96 = MECHANICAL_CONTEXT ( 'NONE', #146, 'mechanical' ) ;
#97 =( GEOMETRIC_REPRESENTATION_CONTEXT ( 3 ) GLOBAL_UNCERTAINTY_ASSIGNED_CONTEXT ( ( #60 ) ) GLOBAL_UNIT_ASSIGNED_CONTEXT ( ( #8, #80, #174 ) ) REPRESENTATION_CONTEXT ( 'NONE', 'WORKASPACE' ) );
#98 = ORIENTED_EDGE ( 'NONE', *, *, #182, .F. ) ;
#99 = CARTESIAN_POINT ( 'NONE',  ( 4.189777606611760026E-14, -1.469576158976823947E-15, 12.00000000000000000 ) ) ;
#100 = PERSON_AND_ORGANIZATION_ROLE ( 'classification_officer' ) ;
#101 = CYLINDRICAL_SURFACE ( 'NONE', #40, 2.000000000000000000 ) ;
#102 = CALENDAR_DATE ( 2021, 16, 11 ) ;
#103 = PLANE ( 'NONE',  #31 ) ;
#104 = DIRECTION ( 'NONE',  ( 0.0000000000000000000, 1.000000000000000000, 0.0000000000000000000 ) ) ;
#105 = DATE_AND_TIME ( #28, #5 ) ;
#106 = EDGE_LOOP ( 'NONE', ( #195 ) ) ;
#107 = VERTEX_POINT ( 'NONE', #30 ) ;
#108 = DESIGN_CONTEXT ( 'detailed design', #50, 'design' ) ;
#109 = DIRECTION ( 'NONE',  ( 4.275831445896958607E-31, 1.000000000000000000, 1.224646799147353207E-16 ) ) ;
#110 = ADVANCED_FACE ( 'NONE', ( #203 ), #57, .T. ) ;
#111 = CARTESIAN_POINT ( 'NONE',  ( 0.0000000000000000000, 0.0000000000000000000, 0.0000000000000000000 ) ) ;
#112 = DIRECTION ( 'NONE',  ( -4.275831445896958607E-31, -1.000000000000000000, -1.224646799147353207E-16 ) ) ;
#113 = DIRECTION ( 'NONE',  ( 0.0000000000000000000, 0.0000000000000000000, 1.000000000000000000 ) ) ;
#114 = PERSON_AND_ORGANIZATION ( #6, #78 ) ;
#115 = AXIS2_PLACEMENT_3D ( 'NONE', #41, #26, #104 ) ;
#116 = APPROVAL_ROLE ( '' ) ;
#117 = FACE_BOUND ( 'NONE', #120, .T. ) ;
#118 = CIRCLE ( 'NONE', #179, 1.999999999999996669 ) ;
#119 = AXIS2_PLACEMENT_3D ( 'NONE', #196, #160, #125 ) ;
#120 = EDGE_LOOP ( 'NONE', ( #124 ) ) ;
#121 = DIRECTION ( 'NONE',  ( 0.0000000000000000000, 1.000000000000000000, 0.0000000000000000000 ) ) ;
#122 = ORIENTED_EDGE ( 'NONE', *, *, #17, .F. ) ;
#123 = DIRECTION ( 'NONE',  ( 3.491481338843133355E-15, -1.224646799147353207E-16, 1.000000000000000000 ) ) ;
#124 = ORIENTED_EDGE ( 'NONE', *, *, #157, .T. ) ;
#125 = DIRECTION ( 'NONE',  ( 4.275831445896958607E-31, 1.000000000000000000, 1.224646799147352961E-16 ) ) ;
#126 = DIRECTION ( 'NONE',  ( -3.491481338843133355E-15, 1.224646799147353207E-16, -1.000000000000000000 ) ) ;
#127 = AXIS2_PLACEMENT_3D ( 'NONE', #132, #180, #163 ) ;
#128 = EDGE_LOOP ( 'NONE', ( #43 ) ) ;
#129 = APPROVAL_DATE_TIME ( #37, #141 ) ;
#130 = APPROVAL_DATE_TIME ( #105, #133 ) ;
#131 = PRODUCT_DEFINITION ( 'UNKNOWN', '', #92, #108 ) ;
#132 = CARTESIAN_POINT ( 'NONE',  ( 2.182175836776958284E-13, -7.654042494670957804E-15, 62.50000000000000000 ) ) ;
#133 = APPROVAL ( #69, 'UNSPECIFIED' ) ;
#134 = CARTESIAN_POINT ( 'NONE',  ( 2.199633243471174140E-13, -7.715274834628325378E-15, 63.00000000000000000 ) ) ;
#135 = PERSON_AND_ORGANIZATION ( #6, #78 ) ;
#136 = APPROVAL_STATUS ( 'not_yet_approved' ) ;
#137 = CC_DESIGN_PERSON_AND_ORGANIZATION_ASSIGNMENT ( #190, #67, ( #192 ) ) ;
#138 = CIRCLE ( 'NONE', #127, 2.000000000000003109 ) ;
#139 = MANIFOLD_SOLID_BREP ( 'Corps-Déplacer/Copier1[2]', #165 ) ;
#140 = DIRECTION ( 'NONE',  ( -4.275831445896958607E-31, -1.000000000000000000, -1.224646799147353207E-16 ) ) ;
#141 = APPROVAL ( #136, 'UNSPECIFIED' ) ;
#142 = EDGE_LOOP ( 'NONE', ( #93 ) ) ;
#143 = CARTESIAN_POINT ( 'NONE',  ( -6.413786353521998128E-31, 2.249653418127172114E-32, -1.836981421658447292E-16 ) ) ;
#144 = SECURITY_CLASSIFICATION ( '', '', #85 ) ;
#145 = PERSON_AND_ORGANIZATION ( #6, #78 ) ;
#146 = APPLICATION_CONTEXT ( 'configuration controlled 3d designs of mechanical parts and assemblies' ) ;
#147 = FACE_OUTER_BOUND ( 'NONE', #142, .T. ) ;
#148 = EDGE_CURVE ( 'NONE', #107, #107, #186, .T. ) ;
#149 = DATE_TIME_ROLE ( 'creation_date' ) ;
#150 = FACE_OUTER_BOUND ( 'NONE', #68, .T. ) ;
#151 = AXIS2_PLACEMENT_3D ( 'NONE', #143, #21, #109 ) ;
#152 = DIRECTION ( 'NONE',  ( 3.491481338843133355E-15, -1.224646799147353207E-16, 1.000000000000000000 ) ) ;
#153 = APPROVAL_STATUS ( 'not_yet_approved' ) ;
#154 = PERSON_AND_ORGANIZATION ( #6, #78 ) ;
#155 = AXIS2_PLACEMENT_3D ( 'NONE', #159, #19, #121 ) ;
#156 = LOCAL_TIME ( 15, 58, 58.00000000000000000, #200 ) ;
#157 = EDGE_CURVE ( 'NONE', #94, #94, #66, .T. ) ;
#158 = VERTEX_POINT ( 'NONE', #18 ) ;
#159 = CARTESIAN_POINT ( 'NONE',  ( 2.199633243471174140E-13, -7.715274834628325378E-15, 63.00000000000000000 ) ) ;
#160 = DIRECTION ( 'NONE',  ( -3.491481338843133355E-15, 1.224646799147353207E-16, -1.000000000000000000 ) ) ;
#161 = PLANE ( 'NONE',  #20 ) ;
#162 = CALENDAR_DATE ( 2021, 16, 11 ) ;
#163 = DIRECTION ( 'NONE',  ( 0.0000000000000000000, 1.000000000000000000, 0.0000000000000000000 ) ) ;
#164 = CARTESIAN_POINT ( 'NONE',  ( 2.199633243471174140E-13, 1.124819836996383900E-32, 63.00000000000000000 ) ) ;
#165 = CLOSED_SHELL ( 'NONE', ( #198, #175, #110 ) ) ;
#166 = DIRECTION ( 'NONE',  ( 0.0000000000000000000, 1.000000000000000000, 0.0000000000000000000 ) ) ;
#167 = CONICAL_SURFACE ( 'NONE', #38, 1.500000000000003109, 0.7853981633974479459 ) ;
#168 = CALENDAR_DATE ( 2021, 16, 11 ) ;
#169 = AXIS2_PLACEMENT_3D ( 'NONE', #7, #123, #140 ) ;
#170 = ORIENTED_EDGE ( 'NONE', *, *, #17, .T. ) ;
#171 = ORIENTED_EDGE ( 'NONE', *, *, #70, .F. ) ;
#172 = VERTEX_POINT ( 'NONE', #32 ) ;
#173 = EDGE_LOOP ( 'NONE', ( #98 ) ) ;
#174 =( NAMED_UNIT ( * ) SI_UNIT ( $, .STERADIAN. ) SOLID_ANGLE_UNIT ( ) );
#175 = ADVANCED_FACE ( 'NONE', ( #2, #147 ), #47, .T. ) ;
#176 = EDGE_LOOP ( 'NONE', ( #170 ) ) ;
#177 = FACE_OUTER_BOUND ( 'NONE', #128, .T. ) ;
#178 = CALENDAR_DATE ( 2021, 16, 11 ) ;
#179 = AXIS2_PLACEMENT_3D ( 'NONE', #99, #126, #48 ) ;
#180 = DIRECTION ( 'NONE',  ( -3.491481338843133355E-15, 1.224646799147353207E-16, -1.000000000000000000 ) ) ;
#181 = CARTESIAN_POINT ( 'NONE',  ( 0.0000000000000000000, 0.0000000000000000000, 0.0000000000000000000 ) ) ;
#182 = EDGE_CURVE ( 'NONE', #172, #172, #118, .T. ) ;
#183 = SHAPE_DEFINITION_REPRESENTATION ( #83, #90 ) ;
#184 = CIRCLE ( 'NONE', #115, 1.999999999999996669 ) ;
#185 = PERSON_AND_ORGANIZATION_ROLE ( 'design_supplier' ) ;
#186 = CIRCLE ( 'NONE', #151, 1.999999999999995337 ) ;
#187 = LOCAL_TIME ( 15, 58, 58.00000000000000000, #56 ) ;
#188 = ORIENTED_EDGE ( 'NONE', *, *, #157, .F. ) ;
#189 = CARTESIAN_POINT ( 'NONE',  ( -3.206893176760999064E-31, 1.124826709063586057E-32, -9.184907108292236459E-17 ) ) ;
#190 = PERSON_AND_ORGANIZATION ( #6, #78 ) ;
#191 = LOCAL_TIME ( 15, 58, 58.00000000000000000, #199 ) ;
#192 = PRODUCT ( '45658', '45658', '', ( #96 ) ) ;
#193 = PLANE ( 'NONE',  #61 ) ;
#194 = PRODUCT_RELATED_PRODUCT_CATEGORY ( 'detail', '', ( #192 ) ) ;
#195 = ORIENTED_EDGE ( 'NONE', *, *, #70, .T. ) ;
#196 = CARTESIAN_POINT ( 'NONE',  ( 0.0000000000000000000, 0.0000000000000000000, 0.0000000000000000000 ) ) ;
#197 = AXIS2_PLACEMENT_3D ( 'NONE', #111, #113, #33 ) ;
#198 = ADVANCED_FACE ( 'NONE', ( #177 ), #193, .F. ) ;
#199 = COORDINATED_UNIVERSAL_TIME_OFFSET ( 1, 0, .AHEAD. ) ;
#200 = COORDINATED_UNIVERSAL_TIME_OFFSET ( 1, 0, .AHEAD. ) ;
#201 = DIRECTION ( 'NONE',  ( -3.491481338843133355E-15, 1.224646799147353207E-16, -1.000000000000000000 ) ) ;
#202 = CC_DESIGN_APPROVAL ( #141, ( #144 ) ) ;
#203 = FACE_OUTER_BOUND ( 'NONE', #173, .T. ) ;
ENDSEC;
END-ISO-10303-21;
