ISO-10303-21;
HEADER;
FILE_DESCRIPTION (( 'STEP AP203' ),
    '1' );
FILE_NAME ('4565.step',
    '2021-09-03T07:22:34',
    ( '' ),
    ( '' ),
    'SwSTEP 2.0',
    'SolidWorks 2019',
    '' );
FILE_SCHEMA (( 'CONFIG_CONTROL_DESIGN' ));
ENDSEC;

DATA;
#1 = CC_DESIGN_PERSON_AND_ORGANIZATION_ASSIGNMENT ( #304, #76, ( #186 ) ) ;
#2 = DIRECTION ( 'NONE',  ( 0.0000000000000000000, 1.000000000000000000, 0.0000000000000000000 ) ) ;
#3 = DIRECTION ( 'NONE',  ( -3.491481338843133355E-15, 1.224646799147353207E-16, -1.000000000000000000 ) ) ;
#4 = CC_DESIGN_APPROVAL ( #70, ( #42 ) ) ;
#5 = PERSON_AND_ORGANIZATION ( #269, #261 ) ;
#6 = APPROVAL_ROLE ( '' ) ;
#7 = EDGE_CURVE ( 'NONE', #32, #311, #325, .T. ) ;
#8 = AXIS2_PLACEMENT_3D ( 'NONE', #329, #152, #255 ) ;
#9 = CC_DESIGN_SECURITY_CLASSIFICATION ( #218, ( #42 ) ) ;
#10 = DIRECTION ( 'NONE',  ( 0.0000000000000000000, 1.000000000000000000, 0.0000000000000000000 ) ) ;
#11 = AXIS2_PLACEMENT_3D ( 'NONE', #49, #134, #296 ) ;
#12 = APPROVAL_PERSON_ORGANIZATION ( #58, #264, #149 ) ;
#13 = ORIENTED_EDGE ( 'NONE', *, *, #175, .F. ) ;
#14 = CARTESIAN_POINT ( 'NONE',  ( 0.0000000000000000000, 0.0000000000000000000, 0.0000000000000000000 ) ) ;
#15 = CARTESIAN_POINT ( 'NONE',  ( 0.0000000000000000000, 0.0000000000000000000, 0.0000000000000000000 ) ) ;
#16 = ORIENTED_EDGE ( 'NONE', *, *, #7, .F. ) ;
#17 = DIRECTION ( 'NONE',  ( -4.275831445896958607E-31, -1.000000000000000000, -1.224646799147353207E-16 ) ) ;
#18 = CYLINDRICAL_SURFACE ( 'NONE', #233, 1.374999999999995559 ) ;
#19 = DIRECTION ( 'NONE',  ( 0.0000000000000000000, 1.000000000000000000, 0.0000000000000000000 ) ) ;
#20 = CYLINDRICAL_SURFACE ( 'NONE', #245, 1.374999999999998224 ) ;
#21 = ORIENTED_EDGE ( 'NONE', *, *, #240, .T. ) ;
#22 = DIRECTION ( 'NONE',  ( -3.491481338843133355E-15, 1.224646799147353207E-16, -1.000000000000000000 ) ) ;
#23 = FACE_OUTER_BOUND ( 'NONE', #139, .T. ) ;
#24 = AXIS2_PLACEMENT_3D ( 'NONE', #60, #128, #104 ) ;
#25 = ORIENTED_EDGE ( 'NONE', *, *, #276, .F. ) ;
#26 = FACE_OUTER_BOUND ( 'NONE', #29, .T. ) ;
#27 = EDGE_CURVE ( 'NONE', #308, #148, #248, .T. ) ;
#28 = DIRECTION ( 'NONE',  ( 4.275831445896958607E-31, 1.000000000000000000, 1.224646799147353207E-16 ) ) ;
#29 = EDGE_LOOP ( 'NONE', ( #25, #299, #82, #193 ) ) ;
#30 = CIRCLE ( 'NONE', #188, 1.075000000000000400 ) ;
#31 = PERSON_AND_ORGANIZATION ( #269, #261 ) ;
#32 = VERTEX_POINT ( 'NONE', #232 ) ;
#33 = PERSON_AND_ORGANIZATION_ROLE ( 'classification_officer' ) ;
#34 = DIRECTION ( 'NONE',  ( -3.491481338843133355E-15, 1.224646799147353207E-16, -1.000000000000000000 ) ) ;
#35 = ORIENTED_EDGE ( 'NONE', *, *, #276, .T. ) ;
#36 = DATE_AND_TIME ( #202, #124 ) ;
#37 = COORDINATED_UNIVERSAL_TIME_OFFSET ( 1, 0, .AHEAD. ) ;
#38 = PRODUCT ( '4565', '4565', '', ( #142 ) ) ;
#39 = ORIENTED_EDGE ( 'NONE', *, *, #288, .T. ) ;
#40 = ORIENTED_EDGE ( 'NONE', *, *, #160, .F. ) ;
#41 = FACE_OUTER_BOUND ( 'NONE', #192, .T. ) ;
#42 = PRODUCT_DEFINITION_FORMATION_WITH_SPECIFIED_SOURCE ( 'ANY', '', #38, .NOT_KNOWN. ) ;
#43 = CARTESIAN_POINT ( 'NONE',  ( 5.879268238108299911E-31, 1.374999999999995559, 1.683889348827605329E-16 ) ) ;
#44 = FACE_OUTER_BOUND ( 'NONE', #45, .T. ) ;
#45 = EDGE_LOOP ( 'NONE', ( #328, #101, #129, #171 ) ) ;
#46 = AXIS2_PLACEMENT_3D ( 'NONE', #285, #315, #161 ) ;
#47 = AXIS2_PLACEMENT_3D ( 'NONE', #286, #109, #316 ) ;
#48 = DIRECTION ( 'NONE',  ( -3.491481338843133355E-15, 1.224646799147353207E-16, -1.000000000000000000 ) ) ;
#49 = CARTESIAN_POINT ( 'NONE',  ( 4.189777606611760026E-14, -1.469576158976823947E-15, 12.00000000000000000 ) ) ;
#50 = CARTESIAN_POINT ( 'NONE',  ( 4.189777606611760026E-14, 1.031084850580022042E-32, 12.00000000000000000 ) ) ;
#51 = CLOSED_SHELL ( 'NONE', ( #78, #222, #227, #66, #238, #297 ) ) ;
#52 = EDGE_CURVE ( 'NONE', #148, #219, #174, .T. ) ;
#53 = ORIENTED_EDGE ( 'NONE', *, *, #240, .F. ) ;
#54 = MANIFOLD_SOLID_BREP ( 'Corps-Déplacer/Copier1[1]', #51 ) ;
#55 = APPROVAL_PERSON_ORGANIZATION ( #151, #70, #224 ) ;
#56 = CC_DESIGN_DATE_AND_TIME_ASSIGNMENT ( #75, #169, ( #186 ) ) ;
#57 = ORIENTED_EDGE ( 'NONE', *, *, #160, .T. ) ;
#58 = PERSON_AND_ORGANIZATION ( #269, #261 ) ;
#59 = ADVANCED_FACE ( 'NONE', ( #203 ), #279, .T. ) ;
#60 = CARTESIAN_POINT ( 'NONE',  ( 0.0000000000000000000, 0.0000000000000000000, 0.0000000000000000000 ) ) ;
#61 = ORIENTED_EDGE ( 'NONE', *, *, #242, .F. ) ;
#62 = VECTOR ( 'NONE', #72, 1000.000000000000000 ) ;
#63 = PERSON_AND_ORGANIZATION ( #269, #261 ) ;
#64 = AXIS2_PLACEMENT_3D ( 'NONE', #14, #115, #241 ) ;
#65 = CIRCLE ( 'NONE', #309, 1.374999999999994671 ) ;
#66 = ADVANCED_FACE ( 'NONE', ( #249 ), #20, .T. ) ;
#67 = EDGE_CURVE ( 'NONE', #219, #311, #259, .T. ) ;
#68 = DIRECTION ( 'NONE',  ( -3.491481338843133355E-15, 1.224646799147353207E-16, -1.000000000000000000 ) ) ;
#69 =( LENGTH_UNIT ( ) NAMED_UNIT ( * ) SI_UNIT ( .MILLI., .METRE. ) );
#70 = APPROVAL ( #306, 'UNSPECIFIED' ) ;
#71 = VECTOR ( 'NONE', #143, 1000.000000000000000 ) ;
#72 = DIRECTION ( 'NONE',  ( -3.491481338843133355E-15, 1.224646799147353207E-16, -1.000000000000000000 ) ) ;
#73 = CARTESIAN_POINT ( 'NONE',  ( 4.189777606611760026E-14, 1.031084850580022042E-32, 12.00000000000000000 ) ) ;
#74 = CIRCLE ( 'NONE', #260, 1.075000000000000400 ) ;
#75 = DATE_AND_TIME ( #133, #234 ) ;
#76 = PERSON_AND_ORGANIZATION_ROLE ( 'creator' ) ;
#77 =( NAMED_UNIT ( * ) SI_UNIT ( $, .STERADIAN. ) SOLID_ANGLE_UNIT ( ) );
#78 = ADVANCED_FACE ( 'NONE', ( #167 ), #247, .T. ) ;
#79 = COORDINATED_UNIVERSAL_TIME_OFFSET ( 1, 0, .AHEAD. ) ;
#80 = DIRECTION ( 'NONE',  ( -3.491481338843133355E-15, 1.224646799147353207E-16, -1.000000000000000000 ) ) ;
#81 = DIRECTION ( 'NONE',  ( -4.275831445896958607E-31, -1.000000000000000000, -1.224646799147353207E-16 ) ) ;
#82 = ORIENTED_EDGE ( 'NONE', *, *, #27, .T. ) ;
#83 = UNCERTAINTY_MEASURE_WITH_UNIT (LENGTH_MEASURE( 1.000000000000000082E-05 ), #69, 'distance_accuracy_value', 'NONE');
#84 = CIRCLE ( 'NONE', #165, 1.375000000000000444 ) ;
#85 = PLANE ( 'NONE',  #157 ) ;
#86 = CARTESIAN_POINT ( 'NONE',  ( 0.0000000000000000000, 0.0000000000000000000, 0.0000000000000000000 ) ) ;
#87 = AXIS2_PLACEMENT_3D ( 'NONE', #307, #80, #312 ) ;
#88 = EDGE_LOOP ( 'NONE', ( #57, #35, #318, #181 ) ) ;
#89 = DIRECTION ( 'NONE',  ( -3.491481338843133355E-15, 1.224646799147353207E-16, -1.000000000000000000 ) ) ;
#90 = LINE ( 'NONE', #324, #207 ) ;
#91 = LINE ( 'NONE', #43, #71 ) ;
#92 = CARTESIAN_POINT ( 'NONE',  ( 2.884603753048152710E-15, -1.011782796510480697E-16, 0.8261833511629012028 ) ) ;
#93 = EDGE_CURVE ( 'NONE', #311, #32, #123, .T. ) ;
#94 = CARTESIAN_POINT ( 'NONE',  ( 1.683889348827599412E-16, -1.374999999999995559, -1.683889348827610999E-16 ) ) ;
#95 = EDGE_LOOP ( 'NONE', ( #146, #301, #16, #153 ) ) ;
#96 = LINE ( 'NONE', #250, #246 ) ;
#97 = DIRECTION ( 'NONE',  ( -3.491481338843133355E-15, 1.224646799147353207E-16, -1.000000000000000000 ) ) ;
#98 = APPLICATION_PROTOCOL_DEFINITION ( 'international standard', 'config_control_design', 1994, #184 ) ;
#99 = CC_DESIGN_PERSON_AND_ORGANIZATION_ASSIGNMENT ( #176, #305, ( #38 ) ) ;
#100 = AXIS2_PLACEMENT_3D ( 'NONE', #206, #34, #10 ) ;
#101 = ORIENTED_EDGE ( 'NONE', *, *, #263, .T. ) ;
#102 = CIRCLE ( 'NONE', #87, 1.374999999999994671 ) ;
#103 = CALENDAR_DATE ( 2021, 3, 9 ) ;
#104 = DIRECTION ( 'NONE',  ( 1.000000000000000000, 0.0000000000000000000, 0.0000000000000000000 ) ) ;
#105 = LINE ( 'NONE', #313, #321 ) ;
#106 = DIRECTION ( 'NONE',  ( -3.491481338843133355E-15, 1.224646799147353207E-16, -1.000000000000000000 ) ) ;
#107 = ADVANCED_BREP_SHAPE_REPRESENTATION ( '4565', ( #54, #159, #24 ), #265 ) ;
#108 = VERTEX_POINT ( 'NONE', #112 ) ;
#109 = DIRECTION ( 'NONE',  ( -3.491481338843133355E-15, 1.224646799147353207E-16, -1.000000000000000000 ) ) ;
#110 = CONICAL_SURFACE ( 'NONE', #8, 1.374999999999994671, 1.029744258676649649 ) ;
#111 = SHAPE_DEFINITION_REPRESENTATION ( #117, #107 ) ;
#112 = CARTESIAN_POINT ( 'NONE',  ( 4.189777606611760026E-14, 1.374999999999994671, 12.00000000000000000 ) ) ;
#113 = LOCAL_TIME ( 9, 22, 34.00000000000000000, #254 ) ;
#114 = CARTESIAN_POINT ( 'NONE',  ( 1.606081415867841091E-13, 8.061208831807403903E-33, 46.00000000000000000 ) ) ;
#115 = DIRECTION ( 'NONE',  ( -3.491481338843133355E-15, 1.224646799147353207E-16, -1.000000000000000000 ) ) ;
#116 = DIRECTION ( 'NONE',  ( 1.798245827342160317E-15, -0.8571673007021098911, 0.5150380749100582634 ) ) ;
#117 = PRODUCT_DEFINITION_SHAPE ( 'NONE', 'NONE',  #186 ) ;
#118 = ORIENTED_EDGE ( 'NONE', *, *, #277, .T. ) ;
#119 = LINE ( 'NONE', #94, #320 ) ;
#120 = DIRECTION ( 'NONE',  ( 0.0000000000000000000, 1.000000000000000000, 0.0000000000000000000 ) ) ;
#121 = APPROVAL ( #236, 'UNSPECIFIED' ) ;
#122 = APPLICATION_PROTOCOL_DEFINITION ( 'international standard', 'config_control_design', 1994, #278 ) ;
#123 = CIRCLE ( 'NONE', #100, 1.374999999999996225 ) ;
#124 = LOCAL_TIME ( 9, 22, 34.00000000000000000, #37 ) ;
#125 = EDGE_LOOP ( 'NONE', ( #221, #163, #118, #135 ) ) ;
#126 = VERTEX_POINT ( 'NONE', #86 ) ;
#127 = COORDINATED_UNIVERSAL_TIME_OFFSET ( 1, 0, .AHEAD. ) ;
#128 = DIRECTION ( 'NONE',  ( 0.0000000000000000000, 0.0000000000000000000, 1.000000000000000000 ) ) ;
#129 = ORIENTED_EDGE ( 'NONE', *, *, #175, .T. ) ;
#130 = DIRECTION ( 'NONE',  ( 5.602705292762889672E-31, 1.000000000000000000, 1.577021341797103477E-16 ) ) ;
#131 = VERTEX_POINT ( 'NONE', #293 ) ;
#132 = CARTESIAN_POINT ( 'NONE',  ( 4.189777606611760026E-14, -1.469576158976823947E-15, 12.00000000000000000 ) ) ;
#133 = CALENDAR_DATE ( 2021, 3, 9 ) ;
#134 = DIRECTION ( 'NONE',  ( -3.491481338843133355E-15, 1.224646799147353207E-16, -1.000000000000000000 ) ) ;
#135 = ORIENTED_EDGE ( 'NONE', *, *, #93, .F. ) ;
#136 = APPROVAL_DATE_TIME ( #36, #121 ) ;
#137 = CARTESIAN_POINT ( 'NONE',  ( 1.008976255605071266E-13, -1.374999999999997780, 12.00000000000000000 ) ) ;
#138 = CYLINDRICAL_SURFACE ( 'NONE', #64, 1.374999999999998224 ) ;
#139 = EDGE_LOOP ( 'NONE', ( #200, #21, #220 ) ) ;
#140 = PLANE ( 'NONE',  #243 ) ;
#141 = CC_DESIGN_APPROVAL ( #121, ( #218 ) ) ;
#142 = MECHANICAL_CONTEXT ( 'NONE', #278, 'mechanical' ) ;
#143 = DIRECTION ( 'NONE',  ( -3.491481338843133355E-15, 1.224646799147353207E-16, -1.000000000000000000 ) ) ;
#144 = CC_DESIGN_PERSON_AND_ORGANIZATION_ASSIGNMENT ( #63, #33, ( #218 ) ) ;
#145 = CARTESIAN_POINT ( 'NONE',  ( 1.595606971851311880E-13, -5.596635872103403844E-15, 45.69999999999999574 ) ) ;
#146 = ORIENTED_EDGE ( 'NONE', *, *, #52, .T. ) ;
#147 = LOCAL_TIME ( 9, 22, 34.00000000000000000, #79 ) ;
#148 = VERTEX_POINT ( 'NONE', #291 ) ;
#149 = APPROVAL_ROLE ( '' ) ;
#150 = DIRECTION ( 'NONE',  ( 3.491481338843133355E-15, -1.224646799147353207E-16, 1.000000000000000000 ) ) ;
#151 = PERSON_AND_ORGANIZATION ( #269, #261 ) ;
#152 = DIRECTION ( 'NONE',  ( 3.491481338843133355E-15, -1.224646799147353207E-16, 1.000000000000000000 ) ) ;
#153 = ORIENTED_EDGE ( 'NONE', *, *, #277, .F. ) ;
#154 = COORDINATED_UNIVERSAL_TIME_OFFSET ( 1, 0, .AHEAD. ) ;
#155 = CARTESIAN_POINT ( 'NONE',  ( 1.606081415867841091E-13, 1.074999999999994849, 46.00000000000000000 ) ) ;
#156 = AXIS2_PLACEMENT_3D ( 'NONE', #50, #334, #81 ) ;
#157 = AXIS2_PLACEMENT_3D ( 'NONE', #114, #282, #28 ) ;
#158 = PRODUCT_RELATED_PRODUCT_CATEGORY ( 'detail', '', ( #38 ) ) ;
#159 = MANIFOLD_SOLID_BREP ( 'Corps-Déplacer/Copier1[2]', #302 ) ;
#160 = EDGE_CURVE ( 'NONE', #308, #216, #74, .T. ) ;
#161 = DIRECTION ( 'NONE',  ( 0.0000000000000000000, 1.000000000000000000, 0.0000000000000000000 ) ) ;
#162 = AXIS2_PLACEMENT_3D ( 'NONE', #132, #230, #2 ) ;
#163 = ORIENTED_EDGE ( 'NONE', *, *, #327, .T. ) ;
#164 = CARTESIAN_POINT ( 'NONE',  ( 1.602344386188531871E-13, -1.075000000000006173, 46.00000000000000000 ) ) ;
#165 = AXIS2_PLACEMENT_3D ( 'NONE', #294, #322, #213 ) ;
#166 = EDGE_CURVE ( 'NONE', #126, #258, #90, .T. ) ;
#167 = FACE_OUTER_BOUND ( 'NONE', #88, .T. ) ;
#168 = EDGE_LOOP ( 'NONE', ( #53, #270, #177 ) ) ;
#169 = DATE_TIME_ROLE ( 'creation_date' ) ;
#170 = CONICAL_SURFACE ( 'NONE', #225, 1.075000000000000400, 0.7853981633974453924 ) ;
#171 = ORIENTED_EDGE ( 'NONE', *, *, #303, .F. ) ;
#172 = DIRECTION ( 'NONE',  ( 1.903218546456022717E-15, 0.8571673007021097801, 0.5150380749100585964 ) ) ;
#173 = ORIENTED_EDGE ( 'NONE', *, *, #263, .F. ) ;
#174 = CIRCLE ( 'NONE', #295, 1.375000000000000444 ) ;
#175 = EDGE_CURVE ( 'NONE', #108, #131, #91, .T. ) ;
#176 = PERSON_AND_ORGANIZATION ( #269, #261 ) ;
#177 = ORIENTED_EDGE ( 'NONE', *, *, #303, .T. ) ;
#178 = CC_DESIGN_PERSON_AND_ORGANIZATION_ASSIGNMENT ( #5, #314, ( #42 ) ) ;
#179 = DIRECTION ( 'NONE',  ( -3.491481338843133355E-15, 1.224646799147353207E-16, -1.000000000000000000 ) ) ;
#180 = PERSON_AND_ORGANIZATION_ROLE ( 'creator' ) ;
#181 = ORIENTED_EDGE ( 'NONE', *, *, #27, .F. ) ;
#182 = CARTESIAN_POINT ( 'NONE',  ( 1.606081415867841091E-13, -5.633375276077824704E-15, 46.00000000000000000 ) ) ;
#183 = CARTESIAN_POINT ( 'NONE',  ( 2.255957884446561917E-14, -1.374999999999997780, 12.00000000000000000 ) ) ;
#184 = APPLICATION_CONTEXT ( 'configuration controlled 3d designs of mechanical parts and assemblies' ) ;
#185 = DESIGN_CONTEXT ( 'detailed design', #184, 'design' ) ;
#186 = PRODUCT_DEFINITION ( 'UNKNOWN', '', #42, #185 ) ;
#187 = DIRECTION ( 'NONE',  ( -3.491481338843133355E-15, 1.224646799147353207E-16, -1.000000000000000000 ) ) ;
#188 = AXIS2_PLACEMENT_3D ( 'NONE', #182, #89, #266 ) ;
#189 = CARTESIAN_POINT ( 'NONE',  ( 1.683889348827602617E-16, -1.374999999999998224, -1.683889348827614204E-16 ) ) ;
#190 = VERTEX_POINT ( 'NONE', #183 ) ;
#191 = DIRECTION ( 'NONE',  ( 3.491481338843133355E-15, -1.224646799147353207E-16, 1.000000000000000000 ) ) ;
#192 = EDGE_LOOP ( 'NONE', ( #244, #173 ) ) ;
#193 = ORIENTED_EDGE ( 'NONE', *, *, #327, .F. ) ;
#194 = DIRECTION ( 'NONE',  ( 4.275831445896959482E-31, 1.000000000000000000, 1.224646799147353207E-16 ) ) ;
#195 = DIRECTION ( 'NONE',  ( 4.275831445896958607E-31, 1.000000000000000000, 1.224646799147352961E-16 ) ) ;
#196 = VECTOR ( 'NONE', #257, 1000.000000000000000 ) ;
#197 = APPROVAL_DATE_TIME ( #256, #264 ) ;
#198 = ADVANCED_FACE ( 'NONE', ( #44 ), #18, .T. ) ;
#199 = ADVANCED_FACE ( 'NONE', ( #41 ), #140, .T. ) ;
#200 = ORIENTED_EDGE ( 'NONE', *, *, #166, .F. ) ;
#201 = FACE_OUTER_BOUND ( 'NONE', #267, .T. ) ;
#202 = CALENDAR_DATE ( 2021, 3, 9 ) ;
#203 = FACE_OUTER_BOUND ( 'NONE', #168, .T. ) ;
#204 = CARTESIAN_POINT ( 'NONE',  ( 1.607397911176924664E-13, -1.075000000000006173, 46.00000000000000000 ) ) ;
#205 = PERSON_AND_ORGANIZATION ( #269, #261 ) ;
#206 = CARTESIAN_POINT ( 'NONE',  ( 4.189777606611760026E-14, -1.469576158976823947E-15, 12.00000000000000000 ) ) ;
#207 = VECTOR ( 'NONE', #116, 1000.000000000000000 ) ;
#208 = AXIS2_PLACEMENT_3D ( 'NONE', #229, #22, #223 ) ;
#209 = CARTESIAN_POINT ( 'NONE',  ( 1.606081415867841091E-13, -5.633375276077824704E-15, 46.00000000000000000 ) ) ;
#210 = ORIENTED_EDGE ( 'NONE', *, *, #93, .T. ) ;
#211 = FACE_OUTER_BOUND ( 'NONE', #323, .T. ) ;
#212 = CIRCLE ( 'NONE', #47, 1.374999999999996225 ) ;
#213 = DIRECTION ( 'NONE',  ( 0.0000000000000000000, 1.000000000000000000, 0.0000000000000000000 ) ) ;
#214 = PLANE ( 'NONE',  #156 ) ;
#215 = EDGE_CURVE ( 'NONE', #190, #258, #119, .T. ) ;
#216 = VERTEX_POINT ( 'NONE', #164 ) ;
#217 = FACE_OUTER_BOUND ( 'NONE', #95, .T. ) ;
#218 = SECURITY_CLASSIFICATION ( '', '', #319 ) ;
#219 = VERTEX_POINT ( 'NONE', #268 ) ;
#220 = ORIENTED_EDGE ( 'NONE', *, *, #242, .T. ) ;
#221 = ORIENTED_EDGE ( 'NONE', *, *, #67, .F. ) ;
#222 = ADVANCED_FACE ( 'NONE', ( #217 ), #138, .T. ) ;
#223 = DIRECTION ( 'NONE',  ( 4.275831445896959482E-31, 1.000000000000000000, 1.224646799147353207E-16 ) ) ;
#224 = APPROVAL_ROLE ( '' ) ;
#225 = AXIS2_PLACEMENT_3D ( 'NONE', #226, #48, #19 ) ;
#226 = CARTESIAN_POINT ( 'NONE',  ( 1.606081415867841091E-13, -5.633375276077824704E-15, 46.00000000000000000 ) ) ;
#227 = ADVANCED_FACE ( 'NONE', ( #211 ), #214, .F. ) ;
#228 = ADVANCED_FACE ( 'NONE', ( #23 ), #110, .T. ) ;
#229 = CARTESIAN_POINT ( 'NONE',  ( 0.0000000000000000000, 0.0000000000000000000, 0.0000000000000000000 ) ) ;
#230 = DIRECTION ( 'NONE',  ( -3.491481338843133355E-15, 1.224646799147353207E-16, -1.000000000000000000 ) ) ;
#231 = CALENDAR_DATE ( 2021, 3, 9 ) ;
#232 = CARTESIAN_POINT ( 'NONE',  ( 4.189777606611760026E-14, 1.374999999999994671, 12.00000000000000000 ) ) ;
#233 = AXIS2_PLACEMENT_3D ( 'NONE', #15, #68, #194 ) ;
#234 = LOCAL_TIME ( 9, 22, 34.00000000000000000, #127 ) ;
#235 = CALENDAR_DATE ( 2021, 3, 9 ) ;
#236 = APPROVAL_STATUS ( 'not_yet_approved' ) ;
#237 = LOCAL_TIME ( 9, 22, 34.00000000000000000, #154 ) ;
#238 = ADVANCED_FACE ( 'NONE', ( #26 ), #170, .T. ) ;
#239 = DATE_AND_TIME ( #235, #237 ) ;
#240 = EDGE_CURVE ( 'NONE', #126, #131, #96, .T. ) ;
#241 = DIRECTION ( 'NONE',  ( 4.275831445896958607E-31, 1.000000000000000000, 1.224646799147352961E-16 ) ) ;
#242 = EDGE_CURVE ( 'NONE', #131, #258, #65, .T. ) ;
#243 = AXIS2_PLACEMENT_3D ( 'NONE', #73, #191, #17 ) ;
#244 = ORIENTED_EDGE ( 'NONE', *, *, #288, .F. ) ;
#245 = AXIS2_PLACEMENT_3D ( 'NONE', #332, #97, #195 ) ;
#246 = VECTOR ( 'NONE', #172, 999.9999999999998863 ) ;
#247 = CONICAL_SURFACE ( 'NONE', #46, 1.075000000000000400, 0.7853981633974453924 ) ;
#248 = LINE ( 'NONE', #155, #284 ) ;
#249 = FACE_OUTER_BOUND ( 'NONE', #125, .T. ) ;
#250 = CARTESIAN_POINT ( 'NONE',  ( 3.052992687930913933E-15, 1.374999999999994671, 0.8261833511629014248 ) ) ;
#251 =( NAMED_UNIT ( * ) PLANE_ANGLE_UNIT ( ) SI_UNIT ( $, .RADIAN. ) );
#252 = CC_DESIGN_PERSON_AND_ORGANIZATION_ASSIGNMENT ( #205, #180, ( #42 ) ) ;
#253 = ADVANCED_FACE ( 'NONE', ( #201 ), #275, .T. ) ;
#254 = COORDINATED_UNIVERSAL_TIME_OFFSET ( 1, 0, .AHEAD. ) ;
#255 = DIRECTION ( 'NONE',  ( -5.602705292762889672E-31, -1.000000000000000000, -1.577021341797103477E-16 ) ) ;
#256 = DATE_AND_TIME ( #103, #113 ) ;
#257 = DIRECTION ( 'NONE',  ( -2.382254525458723780E-15, -0.7071067811865453523, -0.7071067811865496822 ) ) ;
#258 = VERTEX_POINT ( 'NONE', #337 ) ;
#259 = LINE ( 'NONE', #189, #62 ) ;
#260 = AXIS2_PLACEMENT_3D ( 'NONE', #209, #106, #317 ) ;
#261 = ORGANIZATION ( 'UNSPECIFIED', 'UNSPECIFIED', '' ) ;
#262 = ORIENTED_EDGE ( 'NONE', *, *, #335, .F. ) ;
#263 = EDGE_CURVE ( 'NONE', #190, #108, #280, .T. ) ;
#264 = APPROVAL ( #330, 'UNSPECIFIED' ) ;
#265 =( GEOMETRIC_REPRESENTATION_CONTEXT ( 3 ) GLOBAL_UNCERTAINTY_ASSIGNED_CONTEXT ( ( #83 ) ) GLOBAL_UNIT_ASSIGNED_CONTEXT ( ( #69, #251, #77 ) ) REPRESENTATION_CONTEXT ( 'NONE', 'WORKASPACE' ) );
#266 = DIRECTION ( 'NONE',  ( 0.0000000000000000000, 1.000000000000000000, 0.0000000000000000000 ) ) ;
#267 = EDGE_LOOP ( 'NONE', ( #39, #272, #61, #13 ) ) ;
#268 = CARTESIAN_POINT ( 'NONE',  ( 1.008976255605069751E-13, -1.375000000000005995, 45.69999999999999574 ) ) ;
#269 = PERSON ( 'UNSPECIFIED', 'UNSPECIFIED', 'UNSPECIFIED', ('UNSPECIFIED'), ('UNSPECIFIED'), ('UNSPECIFIED') ) ;
#270 = ORIENTED_EDGE ( 'NONE', *, *, #166, .T. ) ;
#271 = AXIS2_PLACEMENT_3D ( 'NONE', #92, #150, #283 ) ;
#272 = ORIENTED_EDGE ( 'NONE', *, *, #215, .T. ) ;
#273 = APPROVAL_PERSON_ORGANIZATION ( #31, #121, #6 ) ;
#274 = DATE_AND_TIME ( #231, #147 ) ;
#275 = CYLINDRICAL_SURFACE ( 'NONE', #208, 1.374999999999995559 ) ;
#276 = EDGE_CURVE ( 'NONE', #216, #219, #310, .T. ) ;
#277 = EDGE_CURVE ( 'NONE', #148, #32, #105, .T. ) ;
#278 = APPLICATION_CONTEXT ( 'configuration controlled 3d designs of mechanical parts and assemblies' ) ;
#279 = CONICAL_SURFACE ( 'NONE', #271, 1.374999999999994671, 1.029744258676649649 ) ;
#280 = CIRCLE ( 'NONE', #162, 1.374999999999996225 ) ;
#281 = CARTESIAN_POINT ( 'NONE',  ( 2.884603753048152710E-15, -1.011782796510480697E-16, 0.8261833511629012028 ) ) ;
#282 = DIRECTION ( 'NONE',  ( -3.491481338843133355E-15, 1.224646799147353207E-16, -1.000000000000000000 ) ) ;
#283 = DIRECTION ( 'NONE',  ( -5.602705292762889672E-31, -1.000000000000000000, -1.577021341797103477E-16 ) ) ;
#284 = VECTOR ( 'NONE', #326, 1000.000000000000114 ) ;
#285 = CARTESIAN_POINT ( 'NONE',  ( 1.606081415867841091E-13, -5.633375276077824704E-15, 46.00000000000000000 ) ) ;
#286 = CARTESIAN_POINT ( 'NONE',  ( 4.189777606611760026E-14, -1.469576158976823947E-15, 12.00000000000000000 ) ) ;
#287 = APPROVAL_DATE_TIME ( #274, #70 ) ;
#288 = EDGE_CURVE ( 'NONE', #108, #190, #212, .T. ) ;
#289 = DATE_TIME_ROLE ( 'classification_date' ) ;
#290 = ORIENTED_EDGE ( 'NONE', *, *, #7, .T. ) ;
#291 = CARTESIAN_POINT ( 'NONE',  ( 1.595606971851311880E-13, 1.374999999999994671, 45.69999999999999574 ) ) ;
#292 = CC_DESIGN_APPROVAL ( #264, ( #186 ) ) ;
#293 = CARTESIAN_POINT ( 'NONE',  ( 3.052992687930913933E-15, 1.374999999999994671, 0.8261833511629014248 ) ) ;
#294 = CARTESIAN_POINT ( 'NONE',  ( 1.595606971851311880E-13, -5.596635872103403844E-15, 45.69999999999999574 ) ) ;
#295 = AXIS2_PLACEMENT_3D ( 'NONE', #145, #3, #120 ) ;
#296 = DIRECTION ( 'NONE',  ( 0.0000000000000000000, 1.000000000000000000, 0.0000000000000000000 ) ) ;
#297 = ADVANCED_FACE ( 'NONE', ( #300 ), #85, .F. ) ;
#298 = CC_DESIGN_DATE_AND_TIME_ASSIGNMENT ( #239, #289, ( #218 ) ) ;
#299 = ORIENTED_EDGE ( 'NONE', *, *, #335, .T. ) ;
#300 = FACE_OUTER_BOUND ( 'NONE', #333, .T. ) ;
#301 = ORIENTED_EDGE ( 'NONE', *, *, #67, .T. ) ;
#302 = CLOSED_SHELL ( 'NONE', ( #253, #228, #59, #198, #199 ) ) ;
#303 = EDGE_CURVE ( 'NONE', #258, #131, #102, .T. ) ;
#304 = PERSON_AND_ORGANIZATION ( #269, #261 ) ;
#305 = PERSON_AND_ORGANIZATION_ROLE ( 'design_owner' ) ;
#306 = APPROVAL_STATUS ( 'not_yet_approved' ) ;
#307 = CARTESIAN_POINT ( 'NONE',  ( 2.884603753048152710E-15, -1.011782796510480697E-16, 0.8261833511629012028 ) ) ;
#308 = VERTEX_POINT ( 'NONE', #331 ) ;
#309 = AXIS2_PLACEMENT_3D ( 'NONE', #281, #336, #130 ) ;
#310 = LINE ( 'NONE', #204, #196 ) ;
#311 = VERTEX_POINT ( 'NONE', #137 ) ;
#312 = DIRECTION ( 'NONE',  ( 5.602705292762889672E-31, 1.000000000000000000, 1.577021341797103477E-16 ) ) ;
#313 = CARTESIAN_POINT ( 'NONE',  ( 5.879268238108310421E-31, 1.374999999999998224, 1.683889348827608287E-16 ) ) ;
#314 = PERSON_AND_ORGANIZATION_ROLE ( 'design_supplier' ) ;
#315 = DIRECTION ( 'NONE',  ( -3.491481338843133355E-15, 1.224646799147353207E-16, -1.000000000000000000 ) ) ;
#316 = DIRECTION ( 'NONE',  ( 0.0000000000000000000, 1.000000000000000000, 0.0000000000000000000 ) ) ;
#317 = DIRECTION ( 'NONE',  ( 0.0000000000000000000, 1.000000000000000000, 0.0000000000000000000 ) ) ;
#318 = ORIENTED_EDGE ( 'NONE', *, *, #52, .F. ) ;
#319 = SECURITY_CLASSIFICATION_LEVEL ( 'unclassified' ) ;
#320 = VECTOR ( 'NONE', #187, 1000.000000000000000 ) ;
#321 = VECTOR ( 'NONE', #179, 1000.000000000000000 ) ;
#322 = DIRECTION ( 'NONE',  ( -3.491481338843133355E-15, 1.224646799147353207E-16, -1.000000000000000000 ) ) ;
#323 = EDGE_LOOP ( 'NONE', ( #290, #210 ) ) ;
#324 = CARTESIAN_POINT ( 'NONE',  ( 2.884603753048152316E-15, -1.374999999999994671, 0.8261833511629009807 ) ) ;
#325 = CIRCLE ( 'NONE', #11, 1.374999999999996225 ) ;
#326 = DIRECTION ( 'NONE',  ( -2.468850131082271655E-15, 0.7071067811865455743, -0.7071067811865493491 ) ) ;
#327 = EDGE_CURVE ( 'NONE', #219, #148, #84, .T. ) ;
#328 = ORIENTED_EDGE ( 'NONE', *, *, #215, .F. ) ;
#329 = CARTESIAN_POINT ( 'NONE',  ( 2.884603753048152710E-15, -1.011782796510480697E-16, 0.8261833511629012028 ) ) ;
#330 = APPROVAL_STATUS ( 'not_yet_approved' ) ;
#331 = CARTESIAN_POINT ( 'NONE',  ( 1.606081415867841091E-13, 1.074999999999994849, 46.00000000000000000 ) ) ;
#332 = CARTESIAN_POINT ( 'NONE',  ( 0.0000000000000000000, 0.0000000000000000000, 0.0000000000000000000 ) ) ;
#333 = EDGE_LOOP ( 'NONE', ( #40, #262 ) ) ;
#334 = DIRECTION ( 'NONE',  ( 3.491481338843133355E-15, -1.224646799147353207E-16, 1.000000000000000000 ) ) ;
#335 = EDGE_CURVE ( 'NONE', #216, #308, #30, .T. ) ;
#336 = DIRECTION ( 'NONE',  ( -3.491481338843133355E-15, 1.224646799147353207E-16, -1.000000000000000000 ) ) ;
#337 = CARTESIAN_POINT ( 'NONE',  ( 2.884603753048152316E-15, -1.374999999999994671, 0.8261833511629009807 ) ) ;
ENDSEC;
END-ISO-10303-21;
