ISO-10303-21;
HEADER;
FILE_DESCRIPTION (( 'STEP AP203' ),
    '1' );
FILE_NAME ('4564.step',
    '2021-09-03T07:22:33',
    ( '' ),
    ( '' ),
    'SwSTEP 2.0',
    'SolidWorks 2019',
    '' );
FILE_SCHEMA (( 'CONFIG_CONTROL_DESIGN' ));
ENDSEC;

DATA;
#1 = DIRECTION ( 'NONE',  ( 0.0000000000000000000, 1.000000000000000000, 0.0000000000000000000 ) ) ;
#2 = EDGE_CURVE ( 'NONE', #207, #277, #142, .T. ) ;
#3 = DIRECTION ( 'NONE',  ( 4.275831445896958607E-31, 1.000000000000000000, 1.224646799147353207E-16 ) ) ;
#4 = PLANE ( 'NONE',  #219 ) ;
#5 = DATE_AND_TIME ( #135, #85 ) ;
#6 = AXIS2_PLACEMENT_3D ( 'NONE', #42, #152, #223 ) ;
#7 = EDGE_LOOP ( 'NONE', ( #214, #261, #183, #146 ) ) ;
#8 = ORIENTED_EDGE ( 'NONE', *, *, #315, .F. ) ;
#9 = EDGE_LOOP ( 'NONE', ( #236, #200, #108, #300 ) ) ;
#10 = LINE ( 'NONE', #92, #114 ) ;
#11 = APPROVAL ( #264, 'UNSPECIFIED' ) ;
#12 = DIRECTION ( 'NONE',  ( 2.907064066999612739E-31, 1.000000000000000000, 8.182657905551009094E-17 ) ) ;
#13 = VERTEX_POINT ( 'NONE', #263 ) ;
#14 = LINE ( 'NONE', #39, #266 ) ;
#15 = CARTESIAN_POINT ( 'NONE',  ( 0.0000000000000000000, 0.0000000000000000000, 0.0000000000000000000 ) ) ;
#16 = ADVANCED_FACE ( 'NONE', ( #271 ), #317, .T. ) ;
#17 = ORIENTED_EDGE ( 'NONE', *, *, #178, .F. ) ;
#18 = COORDINATED_UNIVERSAL_TIME_OFFSET ( 1, 0, .AHEAD. ) ;
#19 = ADVANCED_FACE ( 'NONE', ( #89 ), #110, .T. ) ;
#20 = CARTESIAN_POINT ( 'NONE',  ( 2.779709071119129090E-15, -1.324999999999994849, 0.7961403202115229227 ) ) ;
#21 = APPROVAL_DATE_TIME ( #153, #229 ) ;
#22 = CIRCLE ( 'NONE', #209, 1.025000000000000133 ) ;
#23 = LINE ( 'NONE', #126, #131 ) ;
#24 = CARTESIAN_POINT ( 'NONE',  ( 1.501336975702547217E-13, -5.265981236333618470E-15, 43.00000000000000000 ) ) ;
#25 = PRODUCT_DEFINITION_SHAPE ( 'NONE', 'NONE',  #262 ) ;
#26 = AXIS2_PLACEMENT_3D ( 'NONE', #154, #249, #326 ) ;
#27 = CC_DESIGN_APPROVAL ( #229, ( #262 ) ) ;
#28 = EDGE_CURVE ( 'NONE', #205, #13, #246, .T. ) ;
#29 = VECTOR ( 'NONE', #120, 1000.000000000000000 ) ;
#30 = CARTESIAN_POINT ( 'NONE',  ( 2.779709071119129484E-15, -9.749906948191905323E-17, 0.7961403202115230338 ) ) ;
#31 = CARTESIAN_POINT ( 'NONE',  ( 2.779709071119129484E-15, -9.749906948191905323E-17, 0.7961403202115230338 ) ) ;
#32 = DIRECTION ( 'NONE',  ( -3.491481338843133355E-15, 1.224646799147353207E-16, -1.000000000000000000 ) ) ;
#33 = DIRECTION ( 'NONE',  ( -2.382254525458723780E-15, -0.7071067811865453523, -0.7071067811865496822 ) ) ;
#34 = CARTESIAN_POINT ( 'NONE',  ( 0.0000000000000000000, 0.0000000000000000000, 0.0000000000000000000 ) ) ;
#35 = DIRECTION ( 'NONE',  ( -3.491481338843133355E-15, 1.224646799147353207E-16, -1.000000000000000000 ) ) ;
#36 = EDGE_CURVE ( 'NONE', #216, #313, #194, .T. ) ;
#37 = APPLICATION_CONTEXT ( 'configuration controlled 3d designs of mechanical parts and assemblies' ) ;
#38 = EDGE_LOOP ( 'NONE', ( #164, #231 ) ) ;
#39 = CARTESIAN_POINT ( 'NONE',  ( 1.502592238671673309E-13, -1.025000000000005240, 43.00000000000000000 ) ) ;
#40 = DIRECTION ( 'NONE',  ( -3.491481338843133355E-15, 1.224646799147353207E-16, -1.000000000000000000 ) ) ;
#41 = ADVANCED_FACE ( 'NONE', ( #55 ), #121, .T. ) ;
#42 = CARTESIAN_POINT ( 'NONE',  ( 3.840629472727446691E-14, 9.935908560134758756E-33, 11.00000000000000000 ) ) ;
#43 = CLOSED_SHELL ( 'NONE', ( #336, #107, #117, #16, #19 ) ) ;
#44 = LOCAL_TIME ( 9, 22, 33.00000000000000000, #18 ) ;
#45 = EDGE_LOOP ( 'NONE', ( #333, #60, #160 ) ) ;
#46 = COORDINATED_UNIVERSAL_TIME_OFFSET ( 1, 0, .AHEAD. ) ;
#47 = ORIENTED_EDGE ( 'NONE', *, *, #292, .F. ) ;
#48 = FACE_OUTER_BOUND ( 'NONE', #196, .T. ) ;
#49 = APPROVAL_STATUS ( 'not_yet_approved' ) ;
#50 = DIRECTION ( 'NONE',  ( -2.468850131082271655E-15, 0.7071067811865455743, -0.7071067811865493491 ) ) ;
#51 = AXIS2_PLACEMENT_3D ( 'NONE', #30, #111, #74 ) ;
#52 = ORIENTED_EDGE ( 'NONE', *, *, #244, .T. ) ;
#53 = AXIS2_PLACEMENT_3D ( 'NONE', #274, #270, #321 ) ;
#54 = ADVANCED_FACE ( 'NONE', ( #248 ), #4, .F. ) ;
#55 = FACE_OUTER_BOUND ( 'NONE', #295, .T. ) ;
#56 = CONICAL_SURFACE ( 'NONE', #51, 1.324999999999994849, 1.029744258676649649 ) ;
#57 = APPROVAL_PERSON_ORGANIZATION ( #327, #323, #179 ) ;
#58 = MECHANICAL_CONTEXT ( 'NONE', #37, 'mechanical' ) ;
#59 = CARTESIAN_POINT ( 'NONE',  ( 1.490862531686017753E-13, -5.229241832359197610E-15, 42.69999999999999574 ) ) ;
#60 = ORIENTED_EDGE ( 'NONE', *, *, #315, .T. ) ;
#61 = LINE ( 'NONE', #65, #290 ) ;
#62 = CONICAL_SURFACE ( 'NONE', #158, 1.025000000000000133, 0.7853981633974453924 ) ;
#63 = EDGE_CURVE ( 'NONE', #287, #318, #225, .T. ) ;
#64 = ORIENTED_EDGE ( 'NONE', *, *, #180, .T. ) ;
#65 = CARTESIAN_POINT ( 'NONE',  ( 1.622657008870231888E-16, -1.324999999999995515, -1.622657008870242981E-16 ) ) ;
#66 = APPROVAL_STATUS ( 'not_yet_approved' ) ;
#67 = ADVANCED_FACE ( 'NONE', ( #145 ), #191, .T. ) ;
#68 = DIRECTION ( 'NONE',  ( -3.491481338843133355E-15, 1.224646799147353207E-16, -1.000000000000000000 ) ) ;
#69 = APPLICATION_CONTEXT ( 'configuration controlled 3d designs of mechanical parts and assemblies' ) ;
#70 = DIRECTION ( 'NONE',  ( -3.491481338843133355E-15, 1.224646799147353207E-16, -1.000000000000000000 ) ) ;
#71 = PLANE ( 'NONE',  #6 ) ;
#72 = VERTEX_POINT ( 'NONE', #198 ) ;
#73 = CARTESIAN_POINT ( 'NONE',  ( 0.0000000000000000000, 0.0000000000000000000, 0.0000000000000000000 ) ) ;
#74 = DIRECTION ( 'NONE',  ( -2.907064066999612739E-31, -1.000000000000000000, -8.182657905551009094E-17 ) ) ;
#75 = AXIS2_PLACEMENT_3D ( 'NONE', #15, #237, #239 ) ;
#76 = AXIS2_PLACEMENT_3D ( 'NONE', #73, #175, #141 ) ;
#77 = CALENDAR_DATE ( 2021, 3, 9 ) ;
#78 = UNCERTAINTY_MEASURE_WITH_UNIT (LENGTH_MEASURE( 1.000000000000000082E-05 ), #241, 'distance_accuracy_value', 'NONE');
#79 = CARTESIAN_POINT ( 'NONE',  ( 0.0000000000000000000, 0.0000000000000000000, 0.0000000000000000000 ) ) ;
#80 = CARTESIAN_POINT ( 'NONE',  ( 2.779709071119129484E-15, -9.749906948191905323E-17, 0.7961403202115230338 ) ) ;
#81 = CC_DESIGN_PERSON_AND_ORGANIZATION_ASSIGNMENT ( #133, #331, ( #298 ) ) ;
#82 = LOCAL_TIME ( 9, 22, 33.00000000000000000, #155 ) ;
#83 = ORIENTED_EDGE ( 'NONE', *, *, #36, .T. ) ;
#84 = ADVANCED_FACE ( 'NONE', ( #301 ), #71, .F. ) ;
#85 = LOCAL_TIME ( 9, 22, 33.00000000000000000, #240 ) ;
#86 = PERSON_AND_ORGANIZATION ( #256, #94 ) ;
#87 = FACE_OUTER_BOUND ( 'NONE', #45, .T. ) ;
#88 = DIRECTION ( 'NONE',  ( 0.0000000000000000000, 1.000000000000000000, 0.0000000000000000000 ) ) ;
#89 = FACE_OUTER_BOUND ( 'NONE', #38, .T. ) ;
#90 = ORIENTED_EDGE ( 'NONE', *, *, #129, .T. ) ;
#91 = EDGE_CURVE ( 'NONE', #277, #207, #22, .T. ) ;
#92 = CARTESIAN_POINT ( 'NONE',  ( 1.622657008870235092E-16, -1.324999999999997957, -1.622657008870246186E-16 ) ) ;
#93 = CONICAL_SURFACE ( 'NONE', #174, 1.324999999999994849, 1.029744258676649649 ) ;
#94 = ORGANIZATION ( 'UNSPECIFIED', 'UNSPECIFIED', '' ) ;
#95 = ORIENTED_EDGE ( 'NONE', *, *, #91, .F. ) ;
#96 = CARTESIAN_POINT ( 'NONE',  ( 3.840629472727446691E-14, 1.324999999999994849, 11.00000000000000000 ) ) ;
#97 = DATE_AND_TIME ( #77, #44 ) ;
#98 = DIRECTION ( 'NONE',  ( 4.275831445896958607E-31, 1.000000000000000000, 1.224646799147353207E-16 ) ) ;
#99 = ORIENTED_EDGE ( 'NONE', *, *, #208, .T. ) ;
#100 = DESIGN_CONTEXT ( 'detailed design', #69, 'design' ) ;
#101 = CARTESIAN_POINT ( 'NONE',  ( 1.501336975702547217E-13, 1.024999999999994804, 43.00000000000000000 ) ) ;
#102 = CC_DESIGN_APPROVAL ( #11, ( #334 ) ) ;
#103 = DIRECTION ( 'NONE',  ( 3.491481338843133355E-15, -1.224646799147353207E-16, 1.000000000000000000 ) ) ;
#104 = DIRECTION ( 'NONE',  ( -3.491481338843133355E-15, 1.224646799147353207E-16, -1.000000000000000000 ) ) ;
#105 = SECURITY_CLASSIFICATION_LEVEL ( 'unclassified' ) ;
#106 = VECTOR ( 'NONE', #177, 1000.000000000000000 ) ;
#107 = ADVANCED_FACE ( 'NONE', ( #87 ), #56, .T. ) ;
#108 = ORIENTED_EDGE ( 'NONE', *, *, #163, .T. ) ;
#109 = DATE_AND_TIME ( #252, #82 ) ;
#110 = PLANE ( 'NONE',  #280 ) ;
#111 = DIRECTION ( 'NONE',  ( 3.491481338843133355E-15, -1.224646799147353207E-16, 1.000000000000000000 ) ) ;
#112 = DIRECTION ( 'NONE',  ( -3.491481338843133355E-15, 1.224646799147353207E-16, -1.000000000000000000 ) ) ;
#113 = VERTEX_POINT ( 'NONE', #79 ) ;
#114 = VECTOR ( 'NONE', #193, 1000.000000000000000 ) ;
#115 =( NAMED_UNIT ( * ) PLANE_ANGLE_UNIT ( ) SI_UNIT ( $, .RADIAN. ) );
#116 = EDGE_LOOP ( 'NONE', ( #99, #64 ) ) ;
#117 = ADVANCED_FACE ( 'NONE', ( #48 ), #93, .T. ) ;
#118 = EDGE_LOOP ( 'NONE', ( #83, #221, #156, #254 ) ) ;
#119 = ORIENTED_EDGE ( 'NONE', *, *, #63, .T. ) ;
#120 = DIRECTION ( 'NONE',  ( -3.491481338843133355E-15, 1.224646799147353207E-16, -1.000000000000000000 ) ) ;
#121 = CYLINDRICAL_SURFACE ( 'NONE', #310, 1.324999999999997957 ) ;
#122 = LINE ( 'NONE', #215, #281 ) ;
#123 = PERSON_AND_ORGANIZATION ( #256, #94 ) ;
#124 = DIRECTION ( 'NONE',  ( -3.491481338843133355E-15, 1.224646799147353207E-16, -1.000000000000000000 ) ) ;
#125 = DATE_TIME_ROLE ( 'creation_date' ) ;
#126 = CARTESIAN_POINT ( 'NONE',  ( 5.665476665813450141E-31, 1.324999999999995515, 1.622657008870237311E-16 ) ) ;
#127 = CLOSED_SHELL ( 'NONE', ( #201, #67, #84, #41, #283, #54 ) ) ;
#128 = CIRCLE ( 'NONE', #337, 1.324999999999996181 ) ;
#129 = EDGE_CURVE ( 'NONE', #113, #205, #253, .T. ) ;
#130 = ORIENTED_EDGE ( 'NONE', *, *, #259, .F. ) ;
#131 = VECTOR ( 'NONE', #70, 1000.000000000000000 ) ;
#132 = APPROVAL_PERSON_ORGANIZATION ( #123, #229, #269 ) ;
#133 = PERSON_AND_ORGANIZATION ( #256, #94 ) ;
#134 = ORIENTED_EDGE ( 'NONE', *, *, #208, .F. ) ;
#135 = CALENDAR_DATE ( 2021, 3, 9 ) ;
#136 = CC_DESIGN_SECURITY_CLASSIFICATION ( #334, ( #298 ) ) ;
#137 = CC_DESIGN_PERSON_AND_ORGANIZATION_ASSIGNMENT ( #276, #250, ( #234 ) ) ;
#138 = ADVANCED_BREP_SHAPE_REPRESENTATION ( '4564', ( #168, #172, #220 ), #273 ) ;
#139 = CARTESIAN_POINT ( 'NONE',  ( 3.840629472727446691E-14, -1.347111479062088405E-15, 11.00000000000000000 ) ) ;
#140 = DIRECTION ( 'NONE',  ( -4.275831445896958607E-31, -1.000000000000000000, -1.224646799147353207E-16 ) ) ;
#141 = DIRECTION ( 'NONE',  ( 4.275831445896957731E-31, 1.000000000000000000, 1.224646799147352961E-16 ) ) ;
#142 = CIRCLE ( 'NONE', #157, 1.025000000000000133 ) ;
#143 = DIRECTION ( 'NONE',  ( -3.491481338843133355E-15, 1.224646799147353207E-16, -1.000000000000000000 ) ) ;
#144 = DIRECTION ( 'NONE',  ( 0.0000000000000000000, 0.0000000000000000000, 1.000000000000000000 ) ) ;
#145 = FACE_OUTER_BOUND ( 'NONE', #233, .T. ) ;
#146 = ORIENTED_EDGE ( 'NONE', *, *, #186, .F. ) ;
#147 = CARTESIAN_POINT ( 'NONE',  ( 2.075526760008380361E-14, -1.324999999999997291, 11.00000000000000000 ) ) ;
#148 = AXIS2_PLACEMENT_3D ( 'NONE', #224, #203, #171 ) ;
#149 = CARTESIAN_POINT ( 'NONE',  ( 1.501336975702547217E-13, -5.265981236333618470E-15, 43.00000000000000000 ) ) ;
#150 = CC_DESIGN_PERSON_AND_ORGANIZATION_ASSIGNMENT ( #309, #279, ( #298 ) ) ;
#151 = CIRCLE ( 'NONE', #165, 1.324999999999994849 ) ;
#152 = DIRECTION ( 'NONE',  ( 3.491481338843133355E-15, -1.224646799147353207E-16, 1.000000000000000000 ) ) ;
#153 = DATE_AND_TIME ( #329, #286 ) ;
#154 = CARTESIAN_POINT ( 'NONE',  ( 3.840629472727446691E-14, -1.347111479062088405E-15, 11.00000000000000000 ) ) ;
#155 = COORDINATED_UNIVERSAL_TIME_OFFSET ( 1, 0, .AHEAD. ) ;
#156 = ORIENTED_EDGE ( 'NONE', *, *, #189, .F. ) ;
#157 = AXIS2_PLACEMENT_3D ( 'NONE', #24, #143, #1 ) ;
#158 = AXIS2_PLACEMENT_3D ( 'NONE', #149, #251, #228 ) ;
#159 = COORDINATED_UNIVERSAL_TIME_OFFSET ( 1, 0, .AHEAD. ) ;
#160 = ORIENTED_EDGE ( 'NONE', *, *, #189, .T. ) ;
#161 = DIRECTION ( 'NONE',  ( -3.491481338843133355E-15, 1.224646799147353207E-16, -1.000000000000000000 ) ) ;
#162 = AXIS2_PLACEMENT_3D ( 'NONE', #322, #222, #98 ) ;
#163 = EDGE_CURVE ( 'NONE', #216, #13, #23, .T. ) ;
#164 = ORIENTED_EDGE ( 'NONE', *, *, #36, .F. ) ;
#165 = AXIS2_PLACEMENT_3D ( 'NONE', #80, #40, #202 ) ;
#166 = FACE_OUTER_BOUND ( 'NONE', #284, .T. ) ;
#167 = VERTEX_POINT ( 'NONE', #275 ) ;
#168 = MANIFOLD_SOLID_BREP ( 'Corps-Déplacer/Copier1[1]', #127 ) ;
#169 = PRODUCT_RELATED_PRODUCT_CATEGORY ( 'detail', '', ( #234 ) ) ;
#170 = DIRECTION ( 'NONE',  ( 0.0000000000000000000, 1.000000000000000000, 0.0000000000000000000 ) ) ;
#171 = DIRECTION ( 'NONE',  ( 0.0000000000000000000, 1.000000000000000000, 0.0000000000000000000 ) ) ;
#172 = MANIFOLD_SOLID_BREP ( 'Corps-Déplacer/Copier1[2]', #43 ) ;
#173 = DIRECTION ( 'NONE',  ( -3.491481338843133355E-15, 1.224646799147353207E-16, -1.000000000000000000 ) ) ;
#174 = AXIS2_PLACEMENT_3D ( 'NONE', #308, #103, #278 ) ;
#175 = DIRECTION ( 'NONE',  ( -3.491481338843133355E-15, 1.224646799147353207E-16, -1.000000000000000000 ) ) ;
#176 = ORIENTED_EDGE ( 'NONE', *, *, #28, .T. ) ;
#177 = DIRECTION ( 'NONE',  ( 1.798245827342160317E-15, -0.8571673007021098911, 0.5150380749100582634 ) ) ;
#178 = EDGE_CURVE ( 'NONE', #318, #287, #289, .T. ) ;
#179 = APPROVAL_ROLE ( '' ) ;
#180 = EDGE_CURVE ( 'NONE', #72, #167, #316, .T. ) ;
#181 = LINE ( 'NONE', #101, #258 ) ;
#182 = AXIS2_PLACEMENT_3D ( 'NONE', #227, #104, #299 ) ;
#183 = ORIENTED_EDGE ( 'NONE', *, *, #63, .F. ) ;
#184 = PERSON_AND_ORGANIZATION_ROLE ( 'classification_officer' ) ;
#185 = CONICAL_SURFACE ( 'NONE', #53, 1.025000000000000133, 0.7853981633974453924 ) ;
#186 = EDGE_CURVE ( 'NONE', #207, #287, #181, .T. ) ;
#187 = APPROVAL_ROLE ( '' ) ;
#188 = DIRECTION ( 'NONE',  ( 0.0000000000000000000, 1.000000000000000000, 0.0000000000000000000 ) ) ;
#189 = EDGE_CURVE ( 'NONE', #13, #205, #151, .T. ) ;
#190 = CARTESIAN_POINT ( 'NONE',  ( 0.0000000000000000000, 0.0000000000000000000, 0.0000000000000000000 ) ) ;
#191 = CYLINDRICAL_SURFACE ( 'NONE', #162, 1.324999999999997957 ) ;
#192 =( NAMED_UNIT ( * ) SI_UNIT ( $, .STERADIAN. ) SOLID_ANGLE_UNIT ( ) );
#193 = DIRECTION ( 'NONE',  ( -3.491481338843133355E-15, 1.224646799147353207E-16, -1.000000000000000000 ) ) ;
#194 = CIRCLE ( 'NONE', #328, 1.324999999999996181 ) ;
#195 = CARTESIAN_POINT ( 'NONE',  ( 1.497538713683280516E-13, -1.025000000000005240, 43.00000000000000000 ) ) ;
#196 = EDGE_LOOP ( 'NONE', ( #8, #90, #176 ) ) ;
#197 = CARTESIAN_POINT ( 'NONE',  ( 1.490862531686017753E-13, 1.324999999999994849, 42.69999999999999574 ) ) ;
#198 = CARTESIAN_POINT ( 'NONE',  ( 9.390853964882511175E-14, -1.324999999999997513, 11.00000000000000000 ) ) ;
#199 = CARTESIAN_POINT ( 'NONE',  ( 9.390853964882498553E-14, -1.325000000000005285, 42.69999999999999574 ) ) ;
#200 = ORIENTED_EDGE ( 'NONE', *, *, #297, .T. ) ;
#201 = ADVANCED_FACE ( 'NONE', ( #306 ), #62, .T. ) ;
#202 = DIRECTION ( 'NONE',  ( 2.907064066999612739E-31, 1.000000000000000000, 8.182657905551009094E-17 ) ) ;
#203 = DIRECTION ( 'NONE',  ( -3.491481338843133355E-15, 1.224646799147353207E-16, -1.000000000000000000 ) ) ;
#204 = CC_DESIGN_PERSON_AND_ORGANIZATION_ASSIGNMENT ( #245, #319, ( #262 ) ) ;
#205 = VERTEX_POINT ( 'NONE', #20 ) ;
#206 = CALENDAR_DATE ( 2021, 3, 9 ) ;
#207 = VERTEX_POINT ( 'NONE', #330 ) ;
#208 = EDGE_CURVE ( 'NONE', #167, #72, #320, .T. ) ;
#209 = AXIS2_PLACEMENT_3D ( 'NONE', #325, #161, #188 ) ;
#210 = DIRECTION ( 'NONE',  ( 0.0000000000000000000, 1.000000000000000000, 0.0000000000000000000 ) ) ;
#211 = CARTESIAN_POINT ( 'NONE',  ( 3.840629472727446691E-14, 9.935908560134758756E-33, 11.00000000000000000 ) ) ;
#212 = CARTESIAN_POINT ( 'NONE',  ( 1.501336975702547217E-13, 7.686268886141942238E-33, 43.00000000000000000 ) ) ;
#213 = CC_DESIGN_APPROVAL ( #323, ( #298 ) ) ;
#214 = ORIENTED_EDGE ( 'NONE', *, *, #2, .T. ) ;
#215 = CARTESIAN_POINT ( 'NONE',  ( 2.941974772006153635E-15, 1.324999999999994849, 0.7961403202115231448 ) ) ;
#216 = VERTEX_POINT ( 'NONE', #96 ) ;
#217 = CC_DESIGN_PERSON_AND_ORGANIZATION_ASSIGNMENT ( #232, #184, ( #334 ) ) ;
#218 = APPROVAL_DATE_TIME ( #5, #11 ) ;
#219 = AXIS2_PLACEMENT_3D ( 'NONE', #212, #32, #291 ) ;
#220 = AXIS2_PLACEMENT_3D ( 'NONE', #34, #144, #243 ) ;
#221 = ORIENTED_EDGE ( 'NONE', *, *, #235, .T. ) ;
#222 = DIRECTION ( 'NONE',  ( -3.491481338843133355E-15, 1.224646799147353207E-16, -1.000000000000000000 ) ) ;
#223 = DIRECTION ( 'NONE',  ( -4.275831445896958607E-31, -1.000000000000000000, -1.224646799147353207E-16 ) ) ;
#224 = CARTESIAN_POINT ( 'NONE',  ( 1.490862531686017753E-13, -5.229241832359197610E-15, 42.69999999999999574 ) ) ;
#225 = CIRCLE ( 'NONE', #272, 1.324999999999999956 ) ;
#226 = APPROVAL_PERSON_ORGANIZATION ( #86, #11, #187 ) ;
#227 = CARTESIAN_POINT ( 'NONE',  ( 3.840629472727446691E-14, -1.347111479062088405E-15, 11.00000000000000000 ) ) ;
#228 = DIRECTION ( 'NONE',  ( 0.0000000000000000000, 1.000000000000000000, 0.0000000000000000000 ) ) ;
#229 = APPROVAL ( #66, 'UNSPECIFIED' ) ;
#230 = DATE_AND_TIME ( #206, #311 ) ;
#231 = ORIENTED_EDGE ( 'NONE', *, *, #297, .F. ) ;
#232 = PERSON_AND_ORGANIZATION ( #256, #94 ) ;
#233 = EDGE_LOOP ( 'NONE', ( #119, #52, #134, #130 ) ) ;
#234 = PRODUCT ( '4564', '4564', '', ( #58 ) ) ;
#235 = EDGE_CURVE ( 'NONE', #313, #205, #61, .T. ) ;
#236 = ORIENTED_EDGE ( 'NONE', *, *, #235, .F. ) ;
#237 = DIRECTION ( 'NONE',  ( -3.491481338843133355E-15, 1.224646799147353207E-16, -1.000000000000000000 ) ) ;
#238 = ORIENTED_EDGE ( 'NONE', *, *, #180, .F. ) ;
#239 = DIRECTION ( 'NONE',  ( 4.275831445896957731E-31, 1.000000000000000000, 1.224646799147352961E-16 ) ) ;
#240 = COORDINATED_UNIVERSAL_TIME_OFFSET ( 1, 0, .AHEAD. ) ;
#241 =( LENGTH_UNIT ( ) NAMED_UNIT ( * ) SI_UNIT ( .MILLI., .METRE. ) );
#242 = FACE_OUTER_BOUND ( 'NONE', #118, .T. ) ;
#243 = DIRECTION ( 'NONE',  ( 1.000000000000000000, 0.0000000000000000000, 0.0000000000000000000 ) ) ;
#244 = EDGE_CURVE ( 'NONE', #318, #72, #10, .T. ) ;
#245 = PERSON_AND_ORGANIZATION ( #256, #94 ) ;
#246 = CIRCLE ( 'NONE', #305, 1.324999999999994849 ) ;
#247 = CARTESIAN_POINT ( 'NONE',  ( 3.840629472727446691E-14, -1.347111479062088405E-15, 11.00000000000000000 ) ) ;
#248 = FACE_OUTER_BOUND ( 'NONE', #312, .T. ) ;
#249 = DIRECTION ( 'NONE',  ( -3.491481338843133355E-15, 1.224646799147353207E-16, -1.000000000000000000 ) ) ;
#250 = PERSON_AND_ORGANIZATION_ROLE ( 'design_owner' ) ;
#251 = DIRECTION ( 'NONE',  ( -3.491481338843133355E-15, 1.224646799147353207E-16, -1.000000000000000000 ) ) ;
#252 = CALENDAR_DATE ( 2021, 3, 9 ) ;
#253 = LINE ( 'NONE', #282, #106 ) ;
#254 = ORIENTED_EDGE ( 'NONE', *, *, #163, .F. ) ;
#255 = CC_DESIGN_DATE_AND_TIME_ASSIGNMENT ( #230, #332, ( #334 ) ) ;
#256 = PERSON ( 'UNSPECIFIED', 'UNSPECIFIED', 'UNSPECIFIED', ('UNSPECIFIED'), ('UNSPECIFIED'), ('UNSPECIFIED') ) ;
#257 = ORIENTED_EDGE ( 'NONE', *, *, #178, .T. ) ;
#258 = VECTOR ( 'NONE', #50, 1000.000000000000114 ) ;
#259 = EDGE_CURVE ( 'NONE', #287, #167, #296, .T. ) ;
#260 = ORIENTED_EDGE ( 'NONE', *, *, #91, .T. ) ;
#261 = ORIENTED_EDGE ( 'NONE', *, *, #292, .T. ) ;
#262 = PRODUCT_DEFINITION ( 'UNKNOWN', '', #298, #100 ) ;
#263 = CARTESIAN_POINT ( 'NONE',  ( 2.941974772006153635E-15, 1.324999999999994849, 0.7961403202115231448 ) ) ;
#264 = APPROVAL_STATUS ( 'not_yet_approved' ) ;
#265 = CARTESIAN_POINT ( 'NONE',  ( 5.665476665813461527E-31, 1.324999999999997957, 1.622657008870240516E-16 ) ) ;
#266 = VECTOR ( 'NONE', #33, 1000.000000000000000 ) ;
#267 = ORIENTED_EDGE ( 'NONE', *, *, #259, .T. ) ;
#268 = SHAPE_DEFINITION_REPRESENTATION ( #25, #138 ) ;
#269 = APPROVAL_ROLE ( '' ) ;
#270 = DIRECTION ( 'NONE',  ( -3.491481338843133355E-15, 1.224646799147353207E-16, -1.000000000000000000 ) ) ;
#271 = FACE_OUTER_BOUND ( 'NONE', #9, .T. ) ;
#272 = AXIS2_PLACEMENT_3D ( 'NONE', #59, #112, #210 ) ;
#273 =( GEOMETRIC_REPRESENTATION_CONTEXT ( 3 ) GLOBAL_UNCERTAINTY_ASSIGNED_CONTEXT ( ( #78 ) ) GLOBAL_UNIT_ASSIGNED_CONTEXT ( ( #241, #115, #192 ) ) REPRESENTATION_CONTEXT ( 'NONE', 'WORKASPACE' ) );
#274 = CARTESIAN_POINT ( 'NONE',  ( 1.501336975702547217E-13, -5.265981236333618470E-15, 43.00000000000000000 ) ) ;
#275 = CARTESIAN_POINT ( 'NONE',  ( 3.840629472727446691E-14, 1.324999999999994849, 11.00000000000000000 ) ) ;
#276 = PERSON_AND_ORGANIZATION ( #256, #94 ) ;
#277 = VERTEX_POINT ( 'NONE', #195 ) ;
#278 = DIRECTION ( 'NONE',  ( -2.907064066999612739E-31, -1.000000000000000000, -8.182657905551009094E-17 ) ) ;
#279 = PERSON_AND_ORGANIZATION_ROLE ( 'design_supplier' ) ;
#280 = AXIS2_PLACEMENT_3D ( 'NONE', #211, #294, #140 ) ;
#281 = VECTOR ( 'NONE', #324, 999.9999999999998863 ) ;
#282 = CARTESIAN_POINT ( 'NONE',  ( 2.779709071119129090E-15, -1.324999999999994849, 0.7961403202115229227 ) ) ;
#283 = ADVANCED_FACE ( 'NONE', ( #166 ), #185, .T. ) ;
#284 = EDGE_LOOP ( 'NONE', ( #47, #260, #304, #17 ) ) ;
#285 = ORIENTED_EDGE ( 'NONE', *, *, #2, .F. ) ;
#286 = LOCAL_TIME ( 9, 22, 33.00000000000000000, #46 ) ;
#287 = VERTEX_POINT ( 'NONE', #197 ) ;
#288 = DIRECTION ( 'NONE',  ( -3.491481338843133355E-15, 1.224646799147353207E-16, -1.000000000000000000 ) ) ;
#289 = CIRCLE ( 'NONE', #148, 1.324999999999999956 ) ;
#290 = VECTOR ( 'NONE', #35, 1000.000000000000000 ) ;
#291 = DIRECTION ( 'NONE',  ( 4.275831445896958607E-31, 1.000000000000000000, 1.224646799147353207E-16 ) ) ;
#292 = EDGE_CURVE ( 'NONE', #277, #318, #14, .T. ) ;
#293 = APPLICATION_PROTOCOL_DEFINITION ( 'international standard', 'config_control_design', 1994, #37 ) ;
#294 = DIRECTION ( 'NONE',  ( 3.491481338843133355E-15, -1.224646799147353207E-16, 1.000000000000000000 ) ) ;
#295 = EDGE_LOOP ( 'NONE', ( #335, #257, #267, #238 ) ) ;
#296 = LINE ( 'NONE', #265, #29 ) ;
#297 = EDGE_CURVE ( 'NONE', #313, #216, #128, .T. ) ;
#298 = PRODUCT_DEFINITION_FORMATION_WITH_SPECIFIED_SOURCE ( 'ANY', '', #234, .NOT_KNOWN. ) ;
#299 = DIRECTION ( 'NONE',  ( 0.0000000000000000000, 1.000000000000000000, 0.0000000000000000000 ) ) ;
#300 = ORIENTED_EDGE ( 'NONE', *, *, #28, .F. ) ;
#301 = FACE_OUTER_BOUND ( 'NONE', #116, .T. ) ;
#302 = CYLINDRICAL_SURFACE ( 'NONE', #76, 1.324999999999995515 ) ;
#303 = APPLICATION_PROTOCOL_DEFINITION ( 'international standard', 'config_control_design', 1994, #69 ) ;
#304 = ORIENTED_EDGE ( 'NONE', *, *, #186, .T. ) ;
#305 = AXIS2_PLACEMENT_3D ( 'NONE', #31, #288, #12 ) ;
#306 = FACE_OUTER_BOUND ( 'NONE', #7, .T. ) ;
#307 = APPROVAL_DATE_TIME ( #109, #323 ) ;
#308 = CARTESIAN_POINT ( 'NONE',  ( 2.779709071119129484E-15, -9.749906948191905323E-17, 0.7961403202115230338 ) ) ;
#309 = PERSON_AND_ORGANIZATION ( #256, #94 ) ;
#310 = AXIS2_PLACEMENT_3D ( 'NONE', #190, #124, #3 ) ;
#311 = LOCAL_TIME ( 9, 22, 33.00000000000000000, #159 ) ;
#312 = EDGE_LOOP ( 'NONE', ( #285, #95 ) ) ;
#313 = VERTEX_POINT ( 'NONE', #147 ) ;
#314 = CC_DESIGN_DATE_AND_TIME_ASSIGNMENT ( #97, #125, ( #262 ) ) ;
#315 = EDGE_CURVE ( 'NONE', #113, #13, #122, .T. ) ;
#316 = CIRCLE ( 'NONE', #26, 1.324999999999996181 ) ;
#317 = CYLINDRICAL_SURFACE ( 'NONE', #75, 1.324999999999995515 ) ;
#318 = VERTEX_POINT ( 'NONE', #199 ) ;
#319 = PERSON_AND_ORGANIZATION_ROLE ( 'creator' ) ;
#320 = CIRCLE ( 'NONE', #182, 1.324999999999996181 ) ;
#321 = DIRECTION ( 'NONE',  ( 0.0000000000000000000, 1.000000000000000000, 0.0000000000000000000 ) ) ;
#322 = CARTESIAN_POINT ( 'NONE',  ( 0.0000000000000000000, 0.0000000000000000000, 0.0000000000000000000 ) ) ;
#323 = APPROVAL ( #49, 'UNSPECIFIED' ) ;
#324 = DIRECTION ( 'NONE',  ( 1.903218546456022717E-15, 0.8571673007021097801, 0.5150380749100585964 ) ) ;
#325 = CARTESIAN_POINT ( 'NONE',  ( 1.501336975702547217E-13, -5.265981236333618470E-15, 43.00000000000000000 ) ) ;
#326 = DIRECTION ( 'NONE',  ( 0.0000000000000000000, 1.000000000000000000, 0.0000000000000000000 ) ) ;
#327 = PERSON_AND_ORGANIZATION ( #256, #94 ) ;
#328 = AXIS2_PLACEMENT_3D ( 'NONE', #139, #173, #88 ) ;
#329 = CALENDAR_DATE ( 2021, 3, 9 ) ;
#330 = CARTESIAN_POINT ( 'NONE',  ( 1.501336975702547217E-13, 1.024999999999994804, 43.00000000000000000 ) ) ;
#331 = PERSON_AND_ORGANIZATION_ROLE ( 'creator' ) ;
#332 = DATE_TIME_ROLE ( 'classification_date' ) ;
#333 = ORIENTED_EDGE ( 'NONE', *, *, #129, .F. ) ;
#334 = SECURITY_CLASSIFICATION ( '', '', #105 ) ;
#335 = ORIENTED_EDGE ( 'NONE', *, *, #244, .F. ) ;
#336 = ADVANCED_FACE ( 'NONE', ( #242 ), #302, .T. ) ;
#337 = AXIS2_PLACEMENT_3D ( 'NONE', #247, #68, #170 ) ;
ENDSEC;
END-ISO-10303-21;
