ISO-10303-21;
HEADER;
FILE_DESCRIPTION (( 'STEP AP203' ),
    '1' );
FILE_NAME ('4563.step',
    '2021-09-03T07:22:33',
    ( '' ),
    ( '' ),
    'SwSTEP 2.0',
    'SolidWorks 2019',
    '' );
FILE_SCHEMA (( 'CONFIG_CONTROL_DESIGN' ));
ENDSEC;

DATA;
#1 = APPROVAL_DATE_TIME ( #67, #240 ) ;
#2 = DIRECTION ( 'NONE',  ( -3.144375419407743542E-31, -1.000000000000000000, -8.850629979473538059E-17 ) ) ;
#3 = DIRECTION ( 'NONE',  ( -3.491481338843133355E-15, 1.224646799147353207E-16, -1.000000000000000000 ) ) ;
#4 = CYLINDRICAL_SURFACE ( 'NONE', #78, 1.224999999999998757 ) ;
#5 = DIRECTION ( 'NONE',  ( -3.491481338843133355E-15, 1.224646799147353207E-16, -1.000000000000000000 ) ) ;
#6 = CARTESIAN_POINT ( 'NONE',  ( 3.840629472727446691E-14, -1.347111479062088405E-15, 11.00000000000000000 ) ) ;
#7 = PERSON_AND_ORGANIZATION_ROLE ( 'creator' ) ;
#8 = ORIENTED_EDGE ( 'NONE', *, *, #20, .T. ) ;
#9 = DIRECTION ( 'NONE',  ( 0.0000000000000000000, 1.000000000000000000, 0.0000000000000000000 ) ) ;
#10 = DIRECTION ( 'NONE',  ( 0.0000000000000000000, 0.0000000000000000000, 1.000000000000000000 ) ) ;
#11 = COORDINATED_UNIVERSAL_TIME_OFFSET ( 1, 0, .AHEAD. ) ;
#12 = ORIENTED_EDGE ( 'NONE', *, *, #146, .T. ) ;
#13 = PRODUCT_DEFINITION ( 'UNKNOWN', '', #291, #252 ) ;
#14 = CARTESIAN_POINT ( 'NONE',  ( 3.840629472727446691E-14, 1.224999999999995426, 11.00000000000000000 ) ) ;
#15 = EDGE_LOOP ( 'NONE', ( #35, #118 ) ) ;
#16 = PERSON_AND_ORGANIZATION_ROLE ( 'design_owner' ) ;
#17 = VERTEX_POINT ( 'NONE', #158 ) ;
#18 = ORIENTED_EDGE ( 'NONE', *, *, #276, .F. ) ;
#19 = EDGE_LOOP ( 'NONE', ( #126, #157, #207, #256 ) ) ;
#20 = EDGE_CURVE ( 'NONE', #39, #119, #129, .T. ) ;
#21 = PERSON_AND_ORGANIZATION ( #301, #248 ) ;
#22 =( NAMED_UNIT ( * ) PLANE_ANGLE_UNIT ( ) SI_UNIT ( $, .RADIAN. ) );
#23 = APPLICATION_PROTOCOL_DEFINITION ( 'international standard', 'config_control_design', 1994, #205 ) ;
#24 = CC_DESIGN_PERSON_AND_ORGANIZATION_ASSIGNMENT ( #81, #320, ( #291 ) ) ;
#25 = ORIENTED_EDGE ( 'NONE', *, *, #95, .F. ) ;
#26 = LINE ( 'NONE', #103, #137 ) ;
#27 = APPLICATION_CONTEXT ( 'configuration controlled 3d designs of mechanical parts and assemblies' ) ;
#28 = AXIS2_PLACEMENT_3D ( 'NONE', #313, #263, #258 ) ;
#29 = CARTESIAN_POINT ( 'NONE',  ( 2.569919707261081850E-15, -1.224999999999995426, 0.7360542583087665847 ) ) ;
#30 = AXIS2_PLACEMENT_3D ( 'NONE', #143, #62, #36 ) ;
#31 = ORIENTED_EDGE ( 'NONE', *, *, #333, .F. ) ;
#32 = CIRCLE ( 'NONE', #60, 0.9250000000000008216 ) ;
#33 = DIRECTION ( 'NONE',  ( -3.491481338843133355E-15, 1.224646799147353207E-16, -1.000000000000000000 ) ) ;
#34 = CARTESIAN_POINT ( 'NONE',  ( 1.501336975702547217E-13, -5.265981236333618470E-15, 43.00000000000000000 ) ) ;
#35 = ORIENTED_EDGE ( 'NONE', *, *, #61, .F. ) ;
#36 = DIRECTION ( 'NONE',  ( 0.0000000000000000000, 1.000000000000000000, 0.0000000000000000000 ) ) ;
#37 = ORIENTED_EDGE ( 'NONE', *, *, #172, .T. ) ;
#38 = DIRECTION ( 'NONE',  ( 0.0000000000000000000, 1.000000000000000000, 0.0000000000000000000 ) ) ;
#39 = VERTEX_POINT ( 'NONE', #79 ) ;
#40 = CALENDAR_DATE ( 2021, 3, 9 ) ;
#41 = AXIS2_PLACEMENT_3D ( 'NONE', #55, #127, #2 ) ;
#42 = DIRECTION ( 'NONE',  ( 0.0000000000000000000, 1.000000000000000000, 0.0000000000000000000 ) ) ;
#43 = CARTESIAN_POINT ( 'NONE',  ( 1.501336975702547217E-13, -5.265981236333618470E-15, 43.00000000000000000 ) ) ;
#44 = ADVANCED_FACE ( 'NONE', ( #178 ), #113, .F. ) ;
#45 = CONICAL_SURFACE ( 'NONE', #41, 1.224999999999995426, 1.029744258676649649 ) ;
#46 = CYLINDRICAL_SURFACE ( 'NONE', #80, 1.224999999999996092 ) ;
#47 = DIRECTION ( 'NONE',  ( -4.275831445896958607E-31, -1.000000000000000000, -1.224646799147353207E-16 ) ) ;
#48 = VERTEX_POINT ( 'NONE', #194 ) ;
#49 = ADVANCED_FACE ( 'NONE', ( #70 ), #285, .T. ) ;
#50 = COORDINATED_UNIVERSAL_TIME_OFFSET ( 1, 0, .AHEAD. ) ;
#51 = FACE_OUTER_BOUND ( 'NONE', #59, .T. ) ;
#52 = CARTESIAN_POINT ( 'NONE',  ( 1.502469773991758599E-13, -0.9250000000000061506, 43.00000000000000000 ) ) ;
#53 = CARTESIAN_POINT ( 'NONE',  ( 0.0000000000000000000, 0.0000000000000000000, 0.0000000000000000000 ) ) ;
#54 = CALENDAR_DATE ( 2021, 3, 9 ) ;
#55 = CARTESIAN_POINT ( 'NONE',  ( 2.569919707261082244E-15, -9.014064914366103264E-17, 0.7360542583087666957 ) ) ;
#56 = DIRECTION ( 'NONE',  ( -3.491481338843133355E-15, 1.224646799147353207E-16, -1.000000000000000000 ) ) ;
#57 = CIRCLE ( 'NONE', #227, 1.225000000000000533 ) ;
#58 = DIRECTION ( 'NONE',  ( 4.275831445896958607E-31, 1.000000000000000000, 1.224646799147353207E-16 ) ) ;
#59 = EDGE_LOOP ( 'NONE', ( #94, #37, #223 ) ) ;
#60 = AXIS2_PLACEMENT_3D ( 'NONE', #323, #112, #42 ) ;
#61 = EDGE_CURVE ( 'NONE', #145, #39, #306, .T. ) ;
#62 = DIRECTION ( 'NONE',  ( -3.491481338843133355E-15, 1.224646799147353207E-16, -1.000000000000000000 ) ) ;
#63 = AXIS2_PLACEMENT_3D ( 'NONE', #236, #336, #315 ) ;
#64 = LINE ( 'NONE', #266, #198 ) ;
#65 = CARTESIAN_POINT ( 'NONE',  ( 2.569919707261081850E-15, -1.224999999999995426, 0.7360542583087665847 ) ) ;
#66 = APPROVAL_PERSON_ORGANIZATION ( #274, #188, #230 ) ;
#67 = DATE_AND_TIME ( #40, #284 ) ;
#68 = CARTESIAN_POINT ( 'NONE',  ( 2.569919707261082244E-15, -9.014064914366103264E-17, 0.7360542583087666957 ) ) ;
#69 =( NAMED_UNIT ( * ) SI_UNIT ( $, .STERADIAN. ) SOLID_ANGLE_UNIT ( ) );
#70 = FACE_OUTER_BOUND ( 'NONE', #105, .T. ) ;
#71 = CARTESIAN_POINT ( 'NONE',  ( 0.0000000000000000000, 0.0000000000000000000, 0.0000000000000000000 ) ) ;
#72 = APPROVAL_PERSON_ORGANIZATION ( #21, #123, #220 ) ;
#73 = EDGE_CURVE ( 'NONE', #119, #132, #187, .T. ) ;
#74 = VERTEX_POINT ( 'NONE', #185 ) ;
#75 = ORIENTED_EDGE ( 'NONE', *, *, #140, .T. ) ;
#76 = PRODUCT_DEFINITION_SHAPE ( 'NONE', 'NONE',  #13 ) ;
#77 = ORIENTED_EDGE ( 'NONE', *, *, #327, .T. ) ;
#78 = AXIS2_PLACEMENT_3D ( 'NONE', #322, #181, #88 ) ;
#79 = CARTESIAN_POINT ( 'NONE',  ( 2.063812645016330269E-14, -1.224999999999998090, 11.00000000000000000 ) ) ;
#80 = AXIS2_PLACEMENT_3D ( 'NONE', #53, #147, #254 ) ;
#81 = PERSON_AND_ORGANIZATION ( #301, #248 ) ;
#82 = DIRECTION ( 'NONE',  ( 0.0000000000000000000, 1.000000000000000000, 0.0000000000000000000 ) ) ;
#83 = DATE_AND_TIME ( #116, #122 ) ;
#84 = ADVANCED_FACE ( 'NONE', ( #110 ), #125, .T. ) ;
#85 = CARTESIAN_POINT ( 'NONE',  ( 1.490862531686017501E-13, -5.229241832359196822E-15, 42.69999999999998863 ) ) ;
#86 = DIRECTION ( 'NONE',  ( 0.0000000000000000000, 1.000000000000000000, 0.0000000000000000000 ) ) ;
#87 = PERSON_AND_ORGANIZATION_ROLE ( 'classification_officer' ) ;
#88 = DIRECTION ( 'NONE',  ( 4.275831445896958607E-31, 1.000000000000000000, 1.224646799147353207E-16 ) ) ;
#89 = ADVANCED_FACE ( 'NONE', ( #244 ), #4, .T. ) ;
#90 = AXIS2_PLACEMENT_3D ( 'NONE', #34, #131, #9 ) ;
#91 = CARTESIAN_POINT ( 'NONE',  ( 9.389629318083361551E-14, -1.224999999999998090, 11.00000000000000000 ) ) ;
#92 = CC_DESIGN_APPROVAL ( #188, ( #13 ) ) ;
#93 = AXIS2_PLACEMENT_3D ( 'NONE', #6, #33, #86 ) ;
#94 = ORIENTED_EDGE ( 'NONE', *, *, #327, .F. ) ;
#95 = EDGE_CURVE ( 'NONE', #145, #132, #183, .T. ) ;
#96 = ADVANCED_FACE ( 'NONE', ( #209 ), #325, .F. ) ;
#97 = CARTESIAN_POINT ( 'NONE',  ( 3.840629472727446691E-14, -1.347111479062088405E-15, 11.00000000000000000 ) ) ;
#98 =( LENGTH_UNIT ( ) NAMED_UNIT ( * ) SI_UNIT ( .MILLI., .METRE. ) );
#99 = ORIENTED_EDGE ( 'NONE', *, *, #146, .F. ) ;
#100 = EDGE_CURVE ( 'NONE', #17, #74, #144, .T. ) ;
#101 = ORIENTED_EDGE ( 'NONE', *, *, #100, .F. ) ;
#102 = DIRECTION ( 'NONE',  ( -3.491481338843133355E-15, 1.224646799147353207E-16, -1.000000000000000000 ) ) ;
#103 = CARTESIAN_POINT ( 'NONE',  ( 1.500192328955500782E-16, -1.224999999999998757, -1.500192328955511136E-16 ) ) ;
#104 = SECURITY_CLASSIFICATION ( '', '', #298 ) ;
#105 = EDGE_LOOP ( 'NONE', ( #234, #208, #264, #251 ) ) ;
#106 = DIRECTION ( 'NONE',  ( 0.0000000000000000000, 1.000000000000000000, 0.0000000000000000000 ) ) ;
#107 = PERSON_AND_ORGANIZATION ( #301, #248 ) ;
#108 = EDGE_CURVE ( 'NONE', #39, #145, #296, .T. ) ;
#109 = LINE ( 'NONE', #52, #168 ) ;
#110 = FACE_OUTER_BOUND ( 'NONE', #219, .T. ) ;
#111 = MECHANICAL_CONTEXT ( 'NONE', #27, 'mechanical' ) ;
#112 = DIRECTION ( 'NONE',  ( -3.491481338843133355E-15, 1.224646799147353207E-16, -1.000000000000000000 ) ) ;
#113 = PLANE ( 'NONE',  #257 ) ;
#114 = APPROVAL_DATE_TIME ( #83, #123 ) ;
#115 = COORDINATED_UNIVERSAL_TIME_OFFSET ( 1, 0, .AHEAD. ) ;
#116 = CALENDAR_DATE ( 2021, 3, 9 ) ;
#117 = COORDINATED_UNIVERSAL_TIME_OFFSET ( 1, 0, .AHEAD. ) ;
#118 = ORIENTED_EDGE ( 'NONE', *, *, #108, .F. ) ;
#119 = VERTEX_POINT ( 'NONE', #65 ) ;
#120 = ADVANCED_FACE ( 'NONE', ( #148 ), #173, .T. ) ;
#121 = CARTESIAN_POINT ( 'NONE',  ( 2.719938940156633037E-15, 1.224999999999995426, 0.7360542583087668067 ) ) ;
#122 = LOCAL_TIME ( 9, 22, 33.00000000000000000, #117 ) ;
#123 = APPROVAL ( #199, 'UNSPECIFIED' ) ;
#124 = VECTOR ( 'NONE', #102, 1000.000000000000000 ) ;
#125 = CONICAL_SURFACE ( 'NONE', #289, 1.224999999999995426, 1.029744258676649649 ) ;
#126 = ORIENTED_EDGE ( 'NONE', *, *, #20, .F. ) ;
#127 = DIRECTION ( 'NONE',  ( 3.491481338843133355E-15, -1.224646799147353207E-16, 1.000000000000000000 ) ) ;
#128 = CARTESIAN_POINT ( 'NONE',  ( 1.497416249003365806E-13, -0.9250000000000061506, 43.00000000000000000 ) ) ;
#129 = LINE ( 'NONE', #294, #124 ) ;
#130 = DIRECTION ( 'NONE',  ( -4.275831445896958607E-31, -1.000000000000000000, -1.224646799147353207E-16 ) ) ;
#131 = DIRECTION ( 'NONE',  ( -3.491481338843133355E-15, 1.224646799147353207E-16, -1.000000000000000000 ) ) ;
#132 = VERTEX_POINT ( 'NONE', #121 ) ;
#133 = APPROVAL_ROLE ( '' ) ;
#134 = ORIENTED_EDGE ( 'NONE', *, *, #61, .T. ) ;
#135 = APPLICATION_PROTOCOL_DEFINITION ( 'international standard', 'config_control_design', 1994, #27 ) ;
#136 = EDGE_CURVE ( 'NONE', #156, #17, #228, .T. ) ;
#137 = VECTOR ( 'NONE', #154, 1000.000000000000000 ) ;
#138 = DIRECTION ( 'NONE',  ( 1.000000000000000000, 0.0000000000000000000, 0.0000000000000000000 ) ) ;
#139 = DIRECTION ( 'NONE',  ( 4.275831445896958607E-31, 1.000000000000000000, 1.224646799147353207E-16 ) ) ;
#140 = EDGE_CURVE ( 'NONE', #311, #48, #324, .T. ) ;
#141 = CALENDAR_DATE ( 2021, 3, 9 ) ;
#142 = AXIS2_PLACEMENT_3D ( 'NONE', #43, #246, #38 ) ;
#143 = CARTESIAN_POINT ( 'NONE',  ( 3.840629472727446691E-14, -1.347111479062088405E-15, 11.00000000000000000 ) ) ;
#144 = CIRCLE ( 'NONE', #63, 1.225000000000000533 ) ;
#145 = VERTEX_POINT ( 'NONE', #14 ) ;
#146 = EDGE_CURVE ( 'NONE', #48, #311, #171, .T. ) ;
#147 = DIRECTION ( 'NONE',  ( -3.491481338843133355E-15, 1.224646799147353207E-16, -1.000000000000000000 ) ) ;
#148 = FACE_OUTER_BOUND ( 'NONE', #15, .T. ) ;
#149 = ADVANCED_FACE ( 'NONE', ( #242 ), #216, .T. ) ;
#150 = ORIENTED_EDGE ( 'NONE', *, *, #140, .F. ) ;
#151 = UNCERTAINTY_MEASURE_WITH_UNIT (LENGTH_MEASURE( 1.000000000000000082E-05 ), #98, 'distance_accuracy_value', 'NONE');
#152 = CARTESIAN_POINT ( 'NONE',  ( 0.0000000000000000000, 0.0000000000000000000, 0.0000000000000000000 ) ) ;
#153 = DIRECTION ( 'NONE',  ( 3.144375419407743542E-31, 1.000000000000000000, 8.850629979473538059E-17 ) ) ;
#154 = DIRECTION ( 'NONE',  ( -3.491481338843133355E-15, 1.224646799147353207E-16, -1.000000000000000000 ) ) ;
#155 = LOCAL_TIME ( 9, 22, 33.00000000000000000, #115 ) ;
#156 = VERTEX_POINT ( 'NONE', #270 ) ;
#157 = ORIENTED_EDGE ( 'NONE', *, *, #108, .T. ) ;
#158 = CARTESIAN_POINT ( 'NONE',  ( 1.490862531686017501E-13, 1.224999999999995426, 42.69999999999998863 ) ) ;
#159 = CIRCLE ( 'NONE', #28, 1.224999999999995426 ) ;
#160 = AXIS2_PLACEMENT_3D ( 'NONE', #214, #165, #295 ) ;
#161 = CARTESIAN_POINT ( 'NONE',  ( 1.501336975702547217E-13, 6.936388994811017540E-33, 43.00000000000000000 ) ) ;
#162 = DIRECTION ( 'NONE',  ( -3.491481338843133355E-15, 1.224646799147353207E-16, -1.000000000000000000 ) ) ;
#163 = LOCAL_TIME ( 9, 22, 33.00000000000000000, #50 ) ;
#164 = DIRECTION ( 'NONE',  ( -3.491481338843133355E-15, 1.224646799147353207E-16, -1.000000000000000000 ) ) ;
#165 = DIRECTION ( 'NONE',  ( -3.491481338843133355E-15, 1.224646799147353207E-16, -1.000000000000000000 ) ) ;
#166 = DATE_AND_TIME ( #141, #155 ) ;
#167 = DATE_AND_TIME ( #281, #163 ) ;
#168 = VECTOR ( 'NONE', #255, 1000.000000000000000 ) ;
#169 = ORIENTED_EDGE ( 'NONE', *, *, #247, .T. ) ;
#170 =( GEOMETRIC_REPRESENTATION_CONTEXT ( 3 ) GLOBAL_UNCERTAINTY_ASSIGNED_CONTEXT ( ( #151 ) ) GLOBAL_UNIT_ASSIGNED_CONTEXT ( ( #98, #22, #69 ) ) REPRESENTATION_CONTEXT ( 'NONE', 'WORKASPACE' ) );
#171 = CIRCLE ( 'NONE', #290, 1.224999999999996758 ) ;
#172 = EDGE_CURVE ( 'NONE', #177, #132, #64, .T. ) ;
#173 = PLANE ( 'NONE',  #232 ) ;
#174 = DIRECTION ( 'NONE',  ( -3.491481338843133355E-15, 1.224646799147353207E-16, -1.000000000000000000 ) ) ;
#175 = AXIS2_PLACEMENT_3D ( 'NONE', #303, #10, #138 ) ;
#176 = DATE_AND_TIME ( #54, #237 ) ;
#177 = VERTEX_POINT ( 'NONE', #71 ) ;
#178 = FACE_OUTER_BOUND ( 'NONE', #288, .T. ) ;
#179 = EDGE_LOOP ( 'NONE', ( #134, #8, #319, #25 ) ) ;
#180 = AXIS2_PLACEMENT_3D ( 'NONE', #308, #229, #153 ) ;
#181 = DIRECTION ( 'NONE',  ( -3.491481338843133355E-15, 1.224646799147353207E-16, -1.000000000000000000 ) ) ;
#182 = CONICAL_SURFACE ( 'NONE', #193, 0.9250000000000008216, 0.7853981633974336241 ) ;
#183 = LINE ( 'NONE', #293, #337 ) ;
#184 = ADVANCED_FACE ( 'NONE', ( #310 ), #182, .T. ) ;
#185 = CARTESIAN_POINT ( 'NONE',  ( 9.389629318083348929E-14, -1.225000000000005862, 42.69999999999998863 ) ) ;
#186 = PERSON_AND_ORGANIZATION ( #301, #248 ) ;
#187 = CIRCLE ( 'NONE', #180, 1.224999999999995426 ) ;
#188 = APPROVAL ( #332, 'UNSPECIFIED' ) ;
#189 = ORIENTED_EDGE ( 'NONE', *, *, #73, .T. ) ;
#190 = ORIENTED_EDGE ( 'NONE', *, *, #100, .T. ) ;
#191 = ORIENTED_EDGE ( 'NONE', *, *, #321, .T. ) ;
#192 = CC_DESIGN_APPROVAL ( #240, ( #104 ) ) ;
#193 = AXIS2_PLACEMENT_3D ( 'NONE', #282, #174, #82 ) ;
#194 = CARTESIAN_POINT ( 'NONE',  ( 3.840629472727446691E-14, 1.224999999999995426, 11.00000000000000000 ) ) ;
#195 = PERSON_AND_ORGANIZATION_ROLE ( 'creator' ) ;
#196 = DIRECTION ( 'NONE',  ( -3.491481338843133355E-15, 1.224646799147353207E-16, -1.000000000000000000 ) ) ;
#197 = AXIS2_PLACEMENT_3D ( 'NONE', #243, #253, #130 ) ;
#198 = VECTOR ( 'NONE', #245, 999.9999999999998863 ) ;
#199 = APPROVAL_STATUS ( 'not_yet_approved' ) ;
#200 = EDGE_LOOP ( 'NONE', ( #12, #75 ) ) ;
#201 = PERSON_AND_ORGANIZATION ( #301, #248 ) ;
#202 = DIRECTION ( 'NONE',  ( -2.468850131082301237E-15, 0.7071067811865372477, -0.7071067811865578978 ) ) ;
#203 = SHAPE_DEFINITION_REPRESENTATION ( #76, #238 ) ;
#204 = ORIENTED_EDGE ( 'NONE', *, *, #247, .F. ) ;
#205 = APPLICATION_CONTEXT ( 'configuration controlled 3d designs of mechanical parts and assemblies' ) ;
#206 = CARTESIAN_POINT ( 'NONE',  ( 5.237893521223768994E-31, 1.224999999999998757, 1.500192328955506206E-16 ) ) ;
#207 = ORIENTED_EDGE ( 'NONE', *, *, #95, .T. ) ;
#208 = ORIENTED_EDGE ( 'NONE', *, *, #333, .T. ) ;
#209 = FACE_OUTER_BOUND ( 'NONE', #200, .T. ) ;
#210 = ADVANCED_FACE ( 'NONE', ( #51 ), #45, .T. ) ;
#211 = PERSON_AND_ORGANIZATION ( #301, #248 ) ;
#212 = DIRECTION ( 'NONE',  ( 3.491481338843133355E-15, -1.224646799147353207E-16, 1.000000000000000000 ) ) ;
#213 = AXIS2_PLACEMENT_3D ( 'NONE', #97, #196, #226 ) ;
#214 = CARTESIAN_POINT ( 'NONE',  ( 0.0000000000000000000, 0.0000000000000000000, 0.0000000000000000000 ) ) ;
#215 = EDGE_LOOP ( 'NONE', ( #190, #191, #99, #204 ) ) ;
#216 = CYLINDRICAL_SURFACE ( 'NONE', #160, 1.224999999999996092 ) ;
#217 = CARTESIAN_POINT ( 'NONE',  ( 3.840629472727446691E-14, 9.186028668803834057E-33, 11.00000000000000000 ) ) ;
#218 = PRODUCT ( '4563', '4563', '', ( #111 ) ) ;
#219 = EDGE_LOOP ( 'NONE', ( #259, #77, #189 ) ) ;
#220 = APPROVAL_ROLE ( '' ) ;
#221 = AXIS2_PLACEMENT_3D ( 'NONE', #152, #56, #58 ) ;
#222 = ADVANCED_FACE ( 'NONE', ( #302 ), #46, .T. ) ;
#223 = ORIENTED_EDGE ( 'NONE', *, *, #268, .T. ) ;
#224 = EDGE_CURVE ( 'NONE', #74, #17, #57, .T. ) ;
#225 = CC_DESIGN_APPROVAL ( #123, ( #291 ) ) ;
#226 = DIRECTION ( 'NONE',  ( 0.0000000000000000000, 1.000000000000000000, 0.0000000000000000000 ) ) ;
#227 = AXIS2_PLACEMENT_3D ( 'NONE', #85, #5, #106 ) ;
#228 = LINE ( 'NONE', #334, #312 ) ;
#229 = DIRECTION ( 'NONE',  ( -3.491481338843133355E-15, 1.224646799147353207E-16, -1.000000000000000000 ) ) ;
#230 = APPROVAL_ROLE ( '' ) ;
#231 = CC_DESIGN_SECURITY_CLASSIFICATION ( #104, ( #291 ) ) ;
#232 = AXIS2_PLACEMENT_3D ( 'NONE', #217, #277, #47 ) ;
#233 = ORIENTED_EDGE ( 'NONE', *, *, #224, .T. ) ;
#234 = ORIENTED_EDGE ( 'NONE', *, *, #317, .F. ) ;
#235 = CC_DESIGN_DATE_AND_TIME_ASSIGNMENT ( #167, #299, ( #104 ) ) ;
#236 = CARTESIAN_POINT ( 'NONE',  ( 1.490862531686017501E-13, -5.229241832359196822E-15, 42.69999999999998863 ) ) ;
#237 = LOCAL_TIME ( 9, 22, 33.00000000000000000, #283 ) ;
#238 = ADVANCED_BREP_SHAPE_REPRESENTATION ( '4563', ( #279, #272, #175 ), #170 ) ;
#239 = CYLINDRICAL_SURFACE ( 'NONE', #221, 1.224999999999998757 ) ;
#240 = APPROVAL ( #265, 'UNSPECIFIED' ) ;
#241 = ORIENTED_EDGE ( 'NONE', *, *, #276, .T. ) ;
#242 = FACE_OUTER_BOUND ( 'NONE', #179, .T. ) ;
#243 = CARTESIAN_POINT ( 'NONE',  ( 3.840629472727446691E-14, 9.186028668803834057E-33, 11.00000000000000000 ) ) ;
#244 = FACE_OUTER_BOUND ( 'NONE', #304, .T. ) ;
#245 = DIRECTION ( 'NONE',  ( 1.903218546456022717E-15, 0.8571673007021097801, 0.5150380749100585964 ) ) ;
#246 = DIRECTION ( 'NONE',  ( -3.491481338843133355E-15, 1.224646799147353207E-16, -1.000000000000000000 ) ) ;
#247 = EDGE_CURVE ( 'NONE', #17, #48, #316, .T. ) ;
#248 = ORGANIZATION ( 'UNSPECIFIED', 'UNSPECIFIED', '' ) ;
#249 = CIRCLE ( 'NONE', #90, 0.9250000000000008216 ) ;
#250 = CC_DESIGN_PERSON_AND_ORGANIZATION_ASSIGNMENT ( #186, #195, ( #13 ) ) ;
#251 = ORIENTED_EDGE ( 'NONE', *, *, #224, .F. ) ;
#252 = DESIGN_CONTEXT ( 'detailed design', #205, 'design' ) ;
#253 = DIRECTION ( 'NONE',  ( 3.491481338843133355E-15, -1.224646799147353207E-16, 1.000000000000000000 ) ) ;
#254 = DIRECTION ( 'NONE',  ( 4.275831445896958607E-31, 1.000000000000000000, 1.224646799147353207E-16 ) ) ;
#255 = DIRECTION ( 'NONE',  ( -2.382254525458753757E-15, -0.7071067811865370256, -0.7071067811865580088 ) ) ;
#256 = ORIENTED_EDGE ( 'NONE', *, *, #73, .F. ) ;
#257 = AXIS2_PLACEMENT_3D ( 'NONE', #161, #164, #139 ) ;
#258 = DIRECTION ( 'NONE',  ( 3.144375419407743542E-31, 1.000000000000000000, 8.850629979473538059E-17 ) ) ;
#259 = ORIENTED_EDGE ( 'NONE', *, *, #172, .F. ) ;
#260 = LINE ( 'NONE', #29, #305 ) ;
#261 = ORIENTED_EDGE ( 'NONE', *, *, #321, .F. ) ;
#262 = ADVANCED_FACE ( 'NONE', ( #292 ), #239, .T. ) ;
#263 = DIRECTION ( 'NONE',  ( -3.491481338843133355E-15, 1.224646799147353207E-16, -1.000000000000000000 ) ) ;
#264 = ORIENTED_EDGE ( 'NONE', *, *, #136, .T. ) ;
#265 = APPROVAL_STATUS ( 'not_yet_approved' ) ;
#266 = CARTESIAN_POINT ( 'NONE',  ( 2.719938940156633037E-15, 1.224999999999995426, 0.7360542583087668067 ) ) ;
#267 = DIRECTION ( 'NONE',  ( -3.144375419407743542E-31, -1.000000000000000000, -8.850629979473538059E-17 ) ) ;
#268 = EDGE_CURVE ( 'NONE', #132, #119, #159, .T. ) ;
#269 = PRODUCT_RELATED_PRODUCT_CATEGORY ( 'detail', '', ( #218 ) ) ;
#270 = CARTESIAN_POINT ( 'NONE',  ( 1.501336975702547217E-13, 0.9249999999999954925, 43.00000000000000000 ) ) ;
#271 = PERSON_AND_ORGANIZATION ( #301, #248 ) ;
#272 = MANIFOLD_SOLID_BREP ( 'Corps-Déplacer/Copier1[2]', #330 ) ;
#273 = CLOSED_SHELL ( 'NONE', ( #184, #262, #96, #89, #49, #44 ) ) ;
#274 = PERSON_AND_ORGANIZATION ( #301, #248 ) ;
#275 = ORIENTED_EDGE ( 'NONE', *, *, #317, .T. ) ;
#276 = EDGE_CURVE ( 'NONE', #156, #329, #249, .T. ) ;
#277 = DIRECTION ( 'NONE',  ( 3.491481338843133355E-15, -1.224646799147353207E-16, 1.000000000000000000 ) ) ;
#278 = DIRECTION ( 'NONE',  ( -3.491481338843133355E-15, 1.224646799147353207E-16, -1.000000000000000000 ) ) ;
#279 = MANIFOLD_SOLID_BREP ( 'Corps-Déplacer/Copier1[1]', #273 ) ;
#280 = APPROVAL_DATE_TIME ( #176, #188 ) ;
#281 = CALENDAR_DATE ( 2021, 3, 9 ) ;
#282 = CARTESIAN_POINT ( 'NONE',  ( 1.501336975702547217E-13, -5.265981236333618470E-15, 43.00000000000000000 ) ) ;
#283 = COORDINATED_UNIVERSAL_TIME_OFFSET ( 1, 0, .AHEAD. ) ;
#284 = LOCAL_TIME ( 9, 22, 33.00000000000000000, #11 ) ;
#285 = CONICAL_SURFACE ( 'NONE', #142, 0.9250000000000008216, 0.7853981633974336241 ) ;
#286 = DIRECTION ( 'NONE',  ( 1.798245827342160317E-15, -0.8571673007021098911, 0.5150380749100582634 ) ) ;
#287 = ORIENTED_EDGE ( 'NONE', *, *, #136, .F. ) ;
#288 = EDGE_LOOP ( 'NONE', ( #18, #31 ) ) ;
#289 = AXIS2_PLACEMENT_3D ( 'NONE', #68, #212, #267 ) ;
#290 = AXIS2_PLACEMENT_3D ( 'NONE', #328, #162, #326 ) ;
#291 = PRODUCT_DEFINITION_FORMATION_WITH_SPECIFIED_SOURCE ( 'ANY', '', #218, .NOT_KNOWN. ) ;
#292 = FACE_OUTER_BOUND ( 'NONE', #215, .T. ) ;
#293 = CARTESIAN_POINT ( 'NONE',  ( 5.237893521223757609E-31, 1.224999999999996092, 1.500192328955502755E-16 ) ) ;
#294 = CARTESIAN_POINT ( 'NONE',  ( 1.500192328955497824E-16, -1.224999999999996092, -1.500192328955508178E-16 ) ) ;
#295 = DIRECTION ( 'NONE',  ( 4.275831445896958607E-31, 1.000000000000000000, 1.224646799147353207E-16 ) ) ;
#296 = CIRCLE ( 'NONE', #93, 1.224999999999996758 ) ;
#297 = CC_DESIGN_PERSON_AND_ORGANIZATION_ASSIGNMENT ( #107, #7, ( #291 ) ) ;
#298 = SECURITY_CLASSIFICATION_LEVEL ( 'unclassified' ) ;
#299 = DATE_TIME_ROLE ( 'classification_date' ) ;
#300 = CC_DESIGN_DATE_AND_TIME_ASSIGNMENT ( #166, #307, ( #13 ) ) ;
#301 = PERSON ( 'UNSPECIFIED', 'UNSPECIFIED', 'UNSPECIFIED', ('UNSPECIFIED'), ('UNSPECIFIED'), ('UNSPECIFIED') ) ;
#302 = FACE_OUTER_BOUND ( 'NONE', #19, .T. ) ;
#303 = CARTESIAN_POINT ( 'NONE',  ( 0.0000000000000000000, 0.0000000000000000000, 0.0000000000000000000 ) ) ;
#304 = EDGE_LOOP ( 'NONE', ( #261, #233, #169, #150 ) ) ;
#305 = VECTOR ( 'NONE', #286, 1000.000000000000000 ) ;
#306 = CIRCLE ( 'NONE', #213, 1.224999999999996758 ) ;
#307 = DATE_TIME_ROLE ( 'creation_date' ) ;
#308 = CARTESIAN_POINT ( 'NONE',  ( 2.569919707261082244E-15, -9.014064914366103264E-17, 0.7360542583087666957 ) ) ;
#309 = EDGE_LOOP ( 'NONE', ( #241, #275, #101, #287 ) ) ;
#310 = FACE_OUTER_BOUND ( 'NONE', #309, .T. ) ;
#311 = VERTEX_POINT ( 'NONE', #91 ) ;
#312 = VECTOR ( 'NONE', #202, 999.9999999999998863 ) ;
#313 = CARTESIAN_POINT ( 'NONE',  ( 2.569919707261082244E-15, -9.014064914366103264E-17, 0.7360542583087666957 ) ) ;
#314 = VECTOR ( 'NONE', #3, 1000.000000000000000 ) ;
#315 = DIRECTION ( 'NONE',  ( 0.0000000000000000000, 1.000000000000000000, 0.0000000000000000000 ) ) ;
#316 = LINE ( 'NONE', #206, #314 ) ;
#317 = EDGE_CURVE ( 'NONE', #329, #74, #109, .T. ) ;
#318 = APPROVAL_PERSON_ORGANIZATION ( #201, #240, #133 ) ;
#319 = ORIENTED_EDGE ( 'NONE', *, *, #268, .F. ) ;
#320 = PERSON_AND_ORGANIZATION_ROLE ( 'design_supplier' ) ;
#321 = EDGE_CURVE ( 'NONE', #74, #311, #26, .T. ) ;
#322 = CARTESIAN_POINT ( 'NONE',  ( 0.0000000000000000000, 0.0000000000000000000, 0.0000000000000000000 ) ) ;
#323 = CARTESIAN_POINT ( 'NONE',  ( 1.501336975702547217E-13, -5.265981236333618470E-15, 43.00000000000000000 ) ) ;
#324 = CIRCLE ( 'NONE', #30, 1.224999999999996758 ) ;
#325 = PLANE ( 'NONE',  #197 ) ;
#326 = DIRECTION ( 'NONE',  ( 0.0000000000000000000, 1.000000000000000000, 0.0000000000000000000 ) ) ;
#327 = EDGE_CURVE ( 'NONE', #177, #119, #260, .T. ) ;
#328 = CARTESIAN_POINT ( 'NONE',  ( 3.840629472727446691E-14, -1.347111479062088405E-15, 11.00000000000000000 ) ) ;
#329 = VERTEX_POINT ( 'NONE', #128 ) ;
#330 = CLOSED_SHELL ( 'NONE', ( #149, #210, #84, #222, #120 ) ) ;
#331 = CC_DESIGN_PERSON_AND_ORGANIZATION_ASSIGNMENT ( #211, #16, ( #218 ) ) ;
#332 = APPROVAL_STATUS ( 'not_yet_approved' ) ;
#333 = EDGE_CURVE ( 'NONE', #329, #156, #32, .T. ) ;
#334 = CARTESIAN_POINT ( 'NONE',  ( 1.501336975702547217E-13, 0.9249999999999954925, 43.00000000000000000 ) ) ;
#335 = CC_DESIGN_PERSON_AND_ORGANIZATION_ASSIGNMENT ( #271, #87, ( #104 ) ) ;
#336 = DIRECTION ( 'NONE',  ( -3.491481338843133355E-15, 1.224646799147353207E-16, -1.000000000000000000 ) ) ;
#337 = VECTOR ( 'NONE', #278, 1000.000000000000000 ) ;
ENDSEC;
END-ISO-10303-21;
