ISO-10303-21;
HEADER;
FILE_DESCRIPTION (( 'STEP AP203' ),
    '1' );
FILE_NAME ('4562.step',
    '2021-09-03T07:22:32',
    ( '' ),
    ( '' ),
    'SwSTEP 2.0',
    'SolidWorks 2019',
    '' );
FILE_SCHEMA (( 'CONFIG_CONTROL_DESIGN' ));
ENDSEC;

DATA;
#1 = LINE ( 'NONE', #144, #148 ) ;
#2 = FACE_OUTER_BOUND ( 'NONE', #187, .T. ) ;
#3 = PLANE ( 'NONE',  #298 ) ;
#4 = DIRECTION ( 'NONE',  ( -3.491481338843133355E-15, 1.224646799147353207E-16, -1.000000000000000000 ) ) ;
#5 = AXIS2_PLACEMENT_3D ( 'NONE', #42, #199, #110 ) ;
#6 = FACE_OUTER_BOUND ( 'NONE', #282, .T. ) ;
#7 = ORIENTED_EDGE ( 'NONE', *, *, #21, .F. ) ;
#8 = PERSON_AND_ORGANIZATION ( #260, #223 ) ;
#9 = ORIENTED_EDGE ( 'NONE', *, *, #293, .T. ) ;
#10 = CC_DESIGN_PERSON_AND_ORGANIZATION_ASSIGNMENT ( #272, #332, ( #121 ) ) ;
#11 = CIRCLE ( 'NONE', #329, 1.124999999999999556 ) ;
#12 = DIRECTION ( 'NONE',  ( 0.0000000000000000000, 1.000000000000000000, 0.0000000000000000000 ) ) ;
#13 = PERSON_AND_ORGANIZATION ( #260, #223 ) ;
#14 = ORIENTED_EDGE ( 'NONE', *, *, #101, .T. ) ;
#15 = DIRECTION ( 'NONE',  ( 0.0000000000000000000, 1.000000000000000000, 0.0000000000000000000 ) ) ;
#16 = DATE_TIME_ROLE ( 'classification_date' ) ;
#17 = VERTEX_POINT ( 'NONE', #26 ) ;
#18 = CARTESIAN_POINT ( 'NONE',  ( 3.491481338843133355E-14, -1.224646799147353256E-15, 10.00000000000000000 ) ) ;
#19 = ORIENTED_EDGE ( 'NONE', *, *, #274, .T. ) ;
#20 = ORIENTED_EDGE ( 'NONE', *, *, #247, .T. ) ;
#21 = EDGE_CURVE ( 'NONE', #98, #115, #47, .T. ) ;
#22 = APPROVAL_STATUS ( 'not_yet_approved' ) ;
#23 = DIRECTION ( 'NONE',  ( 1.000000000000000000, 0.0000000000000000000, 0.0000000000000000000 ) ) ;
#24 = COORDINATED_UNIVERSAL_TIME_OFFSET ( 1, 0, .AHEAD. ) ;
#25 = CC_DESIGN_DATE_AND_TIME_ASSIGNMENT ( #112, #165, ( #121 ) ) ;
#26 = CARTESIAN_POINT ( 'NONE',  ( 1.396592535537253342E-13, 0.8249999999999947375, 40.00000000000000000 ) ) ;
#27 = APPROVAL_PERSON_ORGANIZATION ( #167, #90, #279 ) ;
#28 = CONICAL_SURFACE ( 'NONE', #172, 1.124999999999994671, 1.029744258676649649 ) ;
#29 = VERTEX_POINT ( 'NONE', #80 ) ;
#30 = PRODUCT_RELATED_PRODUCT_CATEGORY ( 'detail', '', ( #303 ) ) ;
#31 = CIRCLE ( 'NONE', #142, 1.124999999999996003 ) ;
#32 = CC_DESIGN_APPROVAL ( #90, ( #121 ) ) ;
#33 = DIRECTION ( 'NONE',  ( 4.275831445896958607E-31, 1.000000000000000000, 1.224646799147353207E-16 ) ) ;
#34 = ORIENTED_EDGE ( 'NONE', *, *, #21, .T. ) ;
#35 = ADVANCED_BREP_SHAPE_REPRESENTATION ( '4562', ( #166, #160, #155 ), #45 ) ;
#36 = VERTEX_POINT ( 'NONE', #193 ) ;
#37 = DIRECTION ( 'NONE',  ( -4.275831445896958607E-31, -1.000000000000000000, -1.224646799147353207E-16 ) ) ;
#38 = EDGE_CURVE ( 'NONE', #81, #17, #52, .T. ) ;
#39 = ORIENTED_EDGE ( 'NONE', *, *, #48, .T. ) ;
#40 = PERSON_AND_ORGANIZATION ( #260, #223 ) ;
#41 = DATE_AND_TIME ( #158, #168 ) ;
#42 = CARTESIAN_POINT ( 'NONE',  ( 3.491481338843133355E-14, -1.224646799147353256E-15, 10.00000000000000000 ) ) ;
#43 = DIRECTION ( 'NONE',  ( -3.491481338843133355E-15, 1.224646799147353207E-16, -1.000000000000000000 ) ) ;
#44 = APPLICATION_PROTOCOL_DEFINITION ( 'international standard', 'config_control_design', 1994, #322 ) ;
#45 =( GEOMETRIC_REPRESENTATION_CONTEXT ( 3 ) GLOBAL_UNCERTAINTY_ASSIGNED_CONTEXT ( ( #271 ) ) GLOBAL_UNIT_ASSIGNED_CONTEXT ( ( #236, #149, #308 ) ) REPRESENTATION_CONTEXT ( 'NONE', 'WORKASPACE' ) );
#46 = CARTESIAN_POINT ( 'NONE',  ( 2.497903108307109679E-15, 1.124999999999994671, 0.6759681964060096915 ) ) ;
#47 = CIRCLE ( 'NONE', #58, 1.124999999999994671 ) ;
#48 = EDGE_CURVE ( 'NONE', #305, #99, #31, .T. ) ;
#49 = ORIENTED_EDGE ( 'NONE', *, *, #173, .F. ) ;
#50 = CARTESIAN_POINT ( 'NONE',  ( 3.491481338843133355E-14, 1.124999999999994671, 10.00000000000000000 ) ) ;
#51 = CARTESIAN_POINT ( 'NONE',  ( 1.877524463082124456E-14, -1.124999999999997335, 10.00000000000000000 ) ) ;
#52 = CIRCLE ( 'NONE', #93, 0.8249999999999996225 ) ;
#53 = ORIENTED_EDGE ( 'NONE', *, *, #313, .F. ) ;
#54 = CC_DESIGN_DATE_AND_TIME_ASSIGNMENT ( #215, #16, ( #91 ) ) ;
#55 = DIRECTION ( 'NONE',  ( 3.491481338843133355E-15, -1.224646799147353207E-16, 1.000000000000000000 ) ) ;
#56 = CARTESIAN_POINT ( 'NONE',  ( 1.397602869146550014E-13, -0.8250000000000045075, 40.00000000000000000 ) ) ;
#57 = FACE_OUTER_BOUND ( 'NONE', #225, .T. ) ;
#58 = AXIS2_PLACEMENT_3D ( 'NONE', #61, #169, #222 ) ;
#59 = APPROVAL_DATE_TIME ( #277, #90 ) ;
#60 = DIRECTION ( 'NONE',  ( -3.491481338843133355E-15, 1.224646799147353207E-16, -1.000000000000000000 ) ) ;
#61 = CARTESIAN_POINT ( 'NONE',  ( 2.360130343403032637E-15, -8.278222880540290112E-17, 0.6759681964060095805 ) ) ;
#62 = CARTESIAN_POINT ( 'NONE',  ( 3.491481338843133355E-14, 8.436148777472899780E-33, 10.00000000000000000 ) ) ;
#63 = AXIS2_PLACEMENT_3D ( 'NONE', #62, #286, #264 ) ;
#64 = CARTESIAN_POINT ( 'NONE',  ( 1.396592535537253342E-13, 0.8249999999999947375, 40.00000000000000000 ) ) ;
#65 = ORIENTED_EDGE ( 'NONE', *, *, #321, .F. ) ;
#66 = ORIENTED_EDGE ( 'NONE', *, *, #106, .F. ) ;
#67 = LOCAL_TIME ( 9, 22, 32.00000000000000000, #190 ) ;
#68 = DIRECTION ( 'NONE',  ( 3.491481338843133355E-15, -1.224646799147353207E-16, 1.000000000000000000 ) ) ;
#69 = CARTESIAN_POINT ( 'NONE',  ( 1.386118091520723879E-13, -4.861847792614992166E-15, 39.69999999999999574 ) ) ;
#70 = CARTESIAN_POINT ( 'NONE',  ( 0.0000000000000000000, 0.0000000000000000000, 0.0000000000000000000 ) ) ;
#71 = FACE_OUTER_BOUND ( 'NONE', #75, .T. ) ;
#72 = PERSON_AND_ORGANIZATION_ROLE ( 'design_owner' ) ;
#73 = DIRECTION ( 'NONE',  ( -3.491481338843133355E-15, 1.224646799147353207E-16, -1.000000000000000000 ) ) ;
#74 = PLANE ( 'NONE',  #140 ) ;
#75 = EDGE_LOOP ( 'NONE', ( #248, #265, #108, #238 ) ) ;
#76 = ORIENTED_EDGE ( 'NONE', *, *, #314, .F. ) ;
#77 = ORIENTED_EDGE ( 'NONE', *, *, #247, .F. ) ;
#78 = PERSON_AND_ORGANIZATION ( #260, #223 ) ;
#79 = EDGE_LOOP ( 'NONE', ( #224, #66 ) ) ;
#80 = CARTESIAN_POINT ( 'NONE',  ( 0.0000000000000000000, 0.0000000000000000000, 0.0000000000000000000 ) ) ;
#81 = VERTEX_POINT ( 'NONE', #104 ) ;
#82 = AXIS2_PLACEMENT_3D ( 'NONE', #320, #220, #289 ) ;
#83 = DIRECTION ( 'NONE',  ( -3.491481338843133355E-15, 1.224646799147353207E-16, -1.000000000000000000 ) ) ;
#84 = CARTESIAN_POINT ( 'NONE',  ( 1.396592535537253342E-13, -4.898587196589413026E-15, 40.00000000000000000 ) ) ;
#85 = COORDINATED_UNIVERSAL_TIME_OFFSET ( 1, 0, .AHEAD. ) ;
#86 = EDGE_CURVE ( 'NONE', #219, #305, #208, .T. ) ;
#87 = CARTESIAN_POINT ( 'NONE',  ( 1.396592535537253342E-13, -4.898587196589413026E-15, 40.00000000000000000 ) ) ;
#88 = CYLINDRICAL_SURFACE ( 'NONE', #123, 1.124999999999997780 ) ;
#89 = DIRECTION ( 'NONE',  ( 4.275831445896958607E-31, 1.000000000000000000, 1.224646799147353207E-16 ) ) ;
#90 = APPROVAL ( #230, 'UNSPECIFIED' ) ;
#91 = SECURITY_CLASSIFICATION ( '', '', #134 ) ;
#92 = LINE ( 'NONE', #64, #205 ) ;
#93 = AXIS2_PLACEMENT_3D ( 'NONE', #195, #43, #15 ) ;
#94 = CIRCLE ( 'NONE', #337, 1.124999999999999556 ) ;
#95 = ADVANCED_FACE ( 'NONE', ( #288 ), #154, .T. ) ;
#96 = CARTESIAN_POINT ( 'NONE',  ( 1.386118091520723879E-13, -4.861847792614992166E-15, 39.69999999999999574 ) ) ;
#97 = MECHANICAL_CONTEXT ( 'NONE', #209, 'mechanical' ) ;
#98 = VERTEX_POINT ( 'NONE', #181 ) ;
#99 = VERTEX_POINT ( 'NONE', #197 ) ;
#100 = DIRECTION ( 'NONE',  ( -3.491481338843133355E-15, 1.224646799147353207E-16, -1.000000000000000000 ) ) ;
#101 = EDGE_CURVE ( 'NONE', #99, #305, #120, .T. ) ;
#102 = EDGE_LOOP ( 'NONE', ( #129, #259, #34 ) ) ;
#103 = CARTESIAN_POINT ( 'NONE',  ( 0.0000000000000000000, 0.0000000000000000000, 0.0000000000000000000 ) ) ;
#104 = CARTESIAN_POINT ( 'NONE',  ( 1.392549344158157221E-13, -0.8250000000000045075, 40.00000000000000000 ) ) ;
#105 = DIRECTION ( 'NONE',  ( 0.0000000000000000000, 1.000000000000000000, 0.0000000000000000000 ) ) ;
#106 = EDGE_CURVE ( 'NONE', #201, #174, #326, .T. ) ;
#107 = DIRECTION ( 'NONE',  ( -3.491481338843133355E-15, 1.224646799147353207E-16, -1.000000000000000000 ) ) ;
#108 = ORIENTED_EDGE ( 'NONE', *, *, #48, .F. ) ;
#109 = CALENDAR_DATE ( 2021, 3, 9 ) ;
#110 = DIRECTION ( 'NONE',  ( 0.0000000000000000000, 1.000000000000000000, 0.0000000000000000000 ) ) ;
#111 = PERSON_AND_ORGANIZATION_ROLE ( 'classification_officer' ) ;
#112 = DATE_AND_TIME ( #198, #67 ) ;
#113 = EDGE_CURVE ( 'NONE', #219, #36, #11, .T. ) ;
#114 = ORIENTED_EDGE ( 'NONE', *, *, #113, .F. ) ;
#115 = VERTEX_POINT ( 'NONE', #46 ) ;
#116 = ORIENTED_EDGE ( 'NONE', *, *, #101, .F. ) ;
#117 = ADVANCED_FACE ( 'NONE', ( #300 ), #257, .T. ) ;
#118 = LINE ( 'NONE', #334, #284 ) ;
#119 = CLOSED_SHELL ( 'NONE', ( #290, #132, #333, #188, #117, #136 ) ) ;
#120 = CIRCLE ( 'NONE', #5, 1.124999999999996003 ) ;
#121 = PRODUCT_DEFINITION ( 'UNKNOWN', '', #297, #242 ) ;
#122 = AXIS2_PLACEMENT_3D ( 'NONE', #227, #229, #152 ) ;
#123 = AXIS2_PLACEMENT_3D ( 'NONE', #70, #228, #175 ) ;
#124 = ORIENTED_EDGE ( 'NONE', *, *, #173, .T. ) ;
#125 = DIRECTION ( 'NONE',  ( 0.0000000000000000000, 1.000000000000000000, 0.0000000000000000000 ) ) ;
#126 = CALENDAR_DATE ( 2021, 3, 9 ) ;
#127 = DIRECTION ( 'NONE',  ( 4.275831445896958607E-31, 1.000000000000000000, 1.224646799147353207E-16 ) ) ;
#128 = DIRECTION ( 'NONE',  ( -3.491481338843133355E-15, 1.224646799147353207E-16, -1.000000000000000000 ) ) ;
#129 = ORIENTED_EDGE ( 'NONE', *, *, #192, .F. ) ;
#130 = EDGE_LOOP ( 'NONE', ( #53, #251 ) ) ;
#131 = APPROVAL_DATE_TIME ( #41, #233 ) ;
#132 = ADVANCED_FACE ( 'NONE', ( #71 ), #216, .T. ) ;
#133 = CC_DESIGN_APPROVAL ( #233, ( #297 ) ) ;
#134 = SECURITY_CLASSIFICATION_LEVEL ( 'unclassified' ) ;
#135 = DIRECTION ( 'NONE',  ( 0.0000000000000000000, 1.000000000000000000, 0.0000000000000000000 ) ) ;
#136 = ADVANCED_FACE ( 'NONE', ( #241 ), #3, .F. ) ;
#137 = PERSON_AND_ORGANIZATION ( #260, #223 ) ;
#138 = VECTOR ( 'NONE', #276, 1000.000000000000000 ) ;
#139 = LINE ( 'NONE', #145, #164 ) ;
#140 = AXIS2_PLACEMENT_3D ( 'NONE', #161, #68, #37 ) ;
#141 = ORIENTED_EDGE ( 'NONE', *, *, #106, .T. ) ;
#142 = AXIS2_PLACEMENT_3D ( 'NONE', #18, #100, #301 ) ;
#143 = DIRECTION ( 'NONE',  ( 0.0000000000000000000, 0.0000000000000000000, 1.000000000000000000 ) ) ;
#144 = CARTESIAN_POINT ( 'NONE',  ( 4.810310376634058070E-31, 1.124999999999995337, 1.377727649040766719E-16 ) ) ;
#145 = CARTESIAN_POINT ( 'NONE',  ( 2.497903108307109679E-15, 1.124999999999994671, 0.6759681964060096915 ) ) ;
#146 = EDGE_CURVE ( 'NONE', #29, #98, #186, .T. ) ;
#147 = ORIENTED_EDGE ( 'NONE', *, *, #321, .T. ) ;
#148 = VECTOR ( 'NONE', #294, 1000.000000000000000 ) ;
#149 =( NAMED_UNIT ( * ) PLANE_ANGLE_UNIT ( ) SI_UNIT ( $, .RADIAN. ) );
#150 = ADVANCED_FACE ( 'NONE', ( #318 ), #213, .T. ) ;
#151 = APPROVAL_PERSON_ORGANIZATION ( #137, #233, #299 ) ;
#152 = DIRECTION ( 'NONE',  ( 0.0000000000000000000, 1.000000000000000000, 0.0000000000000000000 ) ) ;
#153 = ORIENTED_EDGE ( 'NONE', *, *, #38, .T. ) ;
#154 = CYLINDRICAL_SURFACE ( 'NONE', #291, 1.124999999999995337 ) ;
#155 = AXIS2_PLACEMENT_3D ( 'NONE', #302, #143, #23 ) ;
#156 = CONICAL_SURFACE ( 'NONE', #202, 0.8249999999999996225, 0.7853981633974452814 ) ;
#157 = PERSON_AND_ORGANIZATION_ROLE ( 'creator' ) ;
#158 = CALENDAR_DATE ( 2021, 3, 9 ) ;
#159 = CARTESIAN_POINT ( 'NONE',  ( 3.491481338843133355E-14, -1.224646799147353256E-15, 10.00000000000000000 ) ) ;
#160 = MANIFOLD_SOLID_BREP ( 'Corps-Déplacer/Copier1[2]', #262 ) ;
#161 = CARTESIAN_POINT ( 'NONE',  ( 3.491481338843133355E-14, 8.436148777472899780E-33, 10.00000000000000000 ) ) ;
#162 = DIRECTION ( 'NONE',  ( 0.0000000000000000000, 1.000000000000000000, 0.0000000000000000000 ) ) ;
#163 = DIRECTION ( 'NONE',  ( 3.491481338843133355E-15, -1.224646799147353207E-16, 1.000000000000000000 ) ) ;
#164 = VECTOR ( 'NONE', #275, 999.9999999999998863 ) ;
#165 = DATE_TIME_ROLE ( 'creation_date' ) ;
#166 = MANIFOLD_SOLID_BREP ( 'Corps-Déplacer/Copier1[1]', #119 ) ;
#167 = PERSON_AND_ORGANIZATION ( #260, #223 ) ;
#168 = LOCAL_TIME ( 9, 22, 32.00000000000000000, #327 ) ;
#169 = DIRECTION ( 'NONE',  ( -3.491481338843133355E-15, 1.224646799147353207E-16, -1.000000000000000000 ) ) ;
#170 = EDGE_LOOP ( 'NONE', ( #273, #256, #20 ) ) ;
#171 = CC_DESIGN_SECURITY_CLASSIFICATION ( #91, ( #297 ) ) ;
#172 = AXIS2_PLACEMENT_3D ( 'NONE', #325, #55, #304 ) ;
#173 = EDGE_CURVE ( 'NONE', #201, #98, #336, .T. ) ;
#174 = VERTEX_POINT ( 'NONE', #235 ) ;
#175 = DIRECTION ( 'NONE',  ( 4.275831445896958607E-31, 1.000000000000000000, 1.224646799147352961E-16 ) ) ;
#176 = DIRECTION ( 'NONE',  ( 0.0000000000000000000, 1.000000000000000000, 0.0000000000000000000 ) ) ;
#177 = CC_DESIGN_APPROVAL ( #180, ( #91 ) ) ;
#178 = CALENDAR_DATE ( 2021, 3, 9 ) ;
#179 = ORIENTED_EDGE ( 'NONE', *, *, #313, .T. ) ;
#180 = APPROVAL ( #335, 'UNSPECIFIED' ) ;
#181 = CARTESIAN_POINT ( 'NONE',  ( 2.360130343403032243E-15, -1.124999999999994671, 0.6759681964060094694 ) ) ;
#182 = CIRCLE ( 'NONE', #196, 0.8249999999999996225 ) ;
#183 = DATE_AND_TIME ( #126, #246 ) ;
#184 = DIRECTION ( 'NONE',  ( -3.491481338843133355E-15, 1.224646799147353207E-16, -1.000000000000000000 ) ) ;
#185 = VECTOR ( 'NONE', #210, 1000.000000000000000 ) ;
#186 = LINE ( 'NONE', #287, #138 ) ;
#187 = EDGE_LOOP ( 'NONE', ( #39, #14 ) ) ;
#188 = ADVANCED_FACE ( 'NONE', ( #6 ), #88, .T. ) ;
#189 = CARTESIAN_POINT ( 'NONE',  ( 0.0000000000000000000, 0.0000000000000000000, 0.0000000000000000000 ) ) ;
#190 = COORDINATED_UNIVERSAL_TIME_OFFSET ( 1, 0, .AHEAD. ) ;
#191 = VECTOR ( 'NONE', #128, 1000.000000000000000 ) ;
#192 = EDGE_CURVE ( 'NONE', #29, #115, #139, .T. ) ;
#193 = CARTESIAN_POINT ( 'NONE',  ( 8.690108403515576422E-14, -1.125000000000004219, 39.69999999999999574 ) ) ;
#194 = EDGE_LOOP ( 'NONE', ( #65, #153, #296, #232 ) ) ;
#195 = CARTESIAN_POINT ( 'NONE',  ( 1.396592535537253342E-13, -4.898587196589413026E-15, 40.00000000000000000 ) ) ;
#196 = AXIS2_PLACEMENT_3D ( 'NONE', #87, #4, #105 ) ;
#197 = CARTESIAN_POINT ( 'NONE',  ( 8.690108403515587781E-14, -1.124999999999997335, 10.00000000000000000 ) ) ;
#198 = CALENDAR_DATE ( 2021, 3, 9 ) ;
#199 = DIRECTION ( 'NONE',  ( -3.491481338843133355E-15, 1.224646799147353207E-16, -1.000000000000000000 ) ) ;
#200 = CIRCLE ( 'NONE', #82, 1.124999999999994671 ) ;
#201 = VERTEX_POINT ( 'NONE', #51 ) ;
#202 = AXIS2_PLACEMENT_3D ( 'NONE', #84, #60, #125 ) ;
#203 = EDGE_LOOP ( 'NONE', ( #49, #141, #9, #7 ) ) ;
#204 = EDGE_LOOP ( 'NONE', ( #19, #124, #77, #245 ) ) ;
#205 = VECTOR ( 'NONE', #258, 1000.000000000000000 ) ;
#206 = DIRECTION ( 'NONE',  ( -3.491481338843133355E-15, 1.224646799147353207E-16, -1.000000000000000000 ) ) ;
#207 = VECTOR ( 'NONE', #212, 1000.000000000000000 ) ;
#208 = LINE ( 'NONE', #283, #207 ) ;
#209 = APPLICATION_CONTEXT ( 'configuration controlled 3d designs of mechanical parts and assemblies' ) ;
#210 = DIRECTION ( 'NONE',  ( -2.382254525458724175E-15, -0.7071067811865452413, -0.7071067811865497932 ) ) ;
#211 = FACE_OUTER_BOUND ( 'NONE', #79, .T. ) ;
#212 = DIRECTION ( 'NONE',  ( -3.491481338843133355E-15, 1.224646799147353207E-16, -1.000000000000000000 ) ) ;
#213 = CYLINDRICAL_SURFACE ( 'NONE', #217, 1.124999999999995337 ) ;
#214 = EDGE_CURVE ( 'NONE', #36, #99, #118, .T. ) ;
#215 = DATE_AND_TIME ( #109, #249 ) ;
#216 = CYLINDRICAL_SURFACE ( 'NONE', #281, 1.124999999999997780 ) ;
#217 = AXIS2_PLACEMENT_3D ( 'NONE', #240, #252, #33 ) ;
#218 = CARTESIAN_POINT ( 'NONE',  ( 2.360130343403032637E-15, -8.278222880540290112E-17, 0.6759681964060095805 ) ) ;
#219 = VERTEX_POINT ( 'NONE', #221 ) ;
#220 = DIRECTION ( 'NONE',  ( -3.491481338843133355E-15, 1.224646799147353207E-16, -1.000000000000000000 ) ) ;
#221 = CARTESIAN_POINT ( 'NONE',  ( 1.386118091520723879E-13, 1.124999999999994671, 39.69999999999999574 ) ) ;
#222 = DIRECTION ( 'NONE',  ( 3.423875456688435594E-31, 1.000000000000000000, 9.637352644315640849E-17 ) ) ;
#223 = ORGANIZATION ( 'UNSPECIFIED', 'UNSPECIFIED', '' ) ;
#224 = ORIENTED_EDGE ( 'NONE', *, *, #274, .F. ) ;
#225 = EDGE_LOOP ( 'NONE', ( #179, #147, #114, #76 ) ) ;
#226 = ADVANCED_FACE ( 'NONE', ( #211 ), #74, .T. ) ;
#227 = CARTESIAN_POINT ( 'NONE',  ( 1.396592535537253342E-13, -4.898587196589413026E-15, 40.00000000000000000 ) ) ;
#228 = DIRECTION ( 'NONE',  ( -3.491481338843133355E-15, 1.224646799147353207E-16, -1.000000000000000000 ) ) ;
#229 = DIRECTION ( 'NONE',  ( -3.491481338843133355E-15, 1.224646799147353207E-16, -1.000000000000000000 ) ) ;
#230 = APPROVAL_STATUS ( 'not_yet_approved' ) ;
#231 = CIRCLE ( 'NONE', #285, 1.124999999999996003 ) ;
#232 = ORIENTED_EDGE ( 'NONE', *, *, #250, .F. ) ;
#233 = APPROVAL ( #22, 'UNSPECIFIED' ) ;
#234 = SHAPE_DEFINITION_REPRESENTATION ( #323, #35 ) ;
#235 = CARTESIAN_POINT ( 'NONE',  ( 3.491481338843133355E-14, 1.124999999999994671, 10.00000000000000000 ) ) ;
#236 =( LENGTH_UNIT ( ) NAMED_UNIT ( * ) SI_UNIT ( .MILLI., .METRE. ) );
#237 = CC_DESIGN_PERSON_AND_ORGANIZATION_ASSIGNMENT ( #40, #295, ( #297 ) ) ;
#238 = ORIENTED_EDGE ( 'NONE', *, *, #86, .F. ) ;
#239 = FACE_OUTER_BOUND ( 'NONE', #170, .T. ) ;
#240 = CARTESIAN_POINT ( 'NONE',  ( 0.0000000000000000000, 0.0000000000000000000, 0.0000000000000000000 ) ) ;
#241 = FACE_OUTER_BOUND ( 'NONE', #130, .T. ) ;
#242 = DESIGN_CONTEXT ( 'detailed design', #322, 'design' ) ;
#243 = FACE_OUTER_BOUND ( 'NONE', #102, .T. ) ;
#244 = DIRECTION ( 'NONE',  ( -3.491481338843133355E-15, 1.224646799147353207E-16, -1.000000000000000000 ) ) ;
#245 = ORIENTED_EDGE ( 'NONE', *, *, #293, .F. ) ;
#246 = LOCAL_TIME ( 9, 22, 32.00000000000000000, #85 ) ;
#247 = EDGE_CURVE ( 'NONE', #115, #98, #200, .T. ) ;
#248 = ORIENTED_EDGE ( 'NONE', *, *, #113, .T. ) ;
#249 = LOCAL_TIME ( 9, 22, 32.00000000000000000, #324 ) ;
#250 = EDGE_CURVE ( 'NONE', #36, #219, #94, .T. ) ;
#251 = ORIENTED_EDGE ( 'NONE', *, *, #38, .F. ) ;
#252 = DIRECTION ( 'NONE',  ( -3.491481338843133355E-15, 1.224646799147353207E-16, -1.000000000000000000 ) ) ;
#253 = APPROVAL_ROLE ( '' ) ;
#254 = CARTESIAN_POINT ( 'NONE',  ( 3.491481338843133355E-14, -1.224646799147353256E-15, 10.00000000000000000 ) ) ;
#255 = PLANE ( 'NONE',  #63 ) ;
#256 = ORIENTED_EDGE ( 'NONE', *, *, #192, .T. ) ;
#257 = CONICAL_SURFACE ( 'NONE', #122, 0.8249999999999996225, 0.7853981633974452814 ) ;
#258 = DIRECTION ( 'NONE',  ( -2.468850131082272443E-15, 0.7071067811865454633, -0.7071067811865495711 ) ) ;
#259 = ORIENTED_EDGE ( 'NONE', *, *, #146, .T. ) ;
#260 = PERSON ( 'UNSPECIFIED', 'UNSPECIFIED', 'UNSPECIFIED', ('UNSPECIFIED'), ('UNSPECIFIED'), ('UNSPECIFIED') ) ;
#261 = ORIENTED_EDGE ( 'NONE', *, *, #250, .T. ) ;
#262 = CLOSED_SHELL ( 'NONE', ( #95, #263, #268, #150, #226 ) ) ;
#263 = ADVANCED_FACE ( 'NONE', ( #239 ), #317, .T. ) ;
#264 = DIRECTION ( 'NONE',  ( -4.275831445896958607E-31, -1.000000000000000000, -1.224646799147353207E-16 ) ) ;
#265 = ORIENTED_EDGE ( 'NONE', *, *, #214, .T. ) ;
#266 = DIRECTION ( 'NONE',  ( -3.491481338843133355E-15, 1.224646799147353207E-16, -1.000000000000000000 ) ) ;
#267 = DIRECTION ( 'NONE',  ( 4.275831445896958607E-31, 1.000000000000000000, 1.224646799147352961E-16 ) ) ;
#268 = ADVANCED_FACE ( 'NONE', ( #243 ), #28, .T. ) ;
#269 = CC_DESIGN_PERSON_AND_ORGANIZATION_ASSIGNMENT ( #8, #111, ( #91 ) ) ;
#270 = DIRECTION ( 'NONE',  ( -3.423875456688435594E-31, -1.000000000000000000, -9.637352644315640849E-17 ) ) ;
#271 = UNCERTAINTY_MEASURE_WITH_UNIT (LENGTH_MEASURE( 1.000000000000000082E-05 ), #236, 'distance_accuracy_value', 'NONE');
#272 = PERSON_AND_ORGANIZATION ( #260, #223 ) ;
#273 = ORIENTED_EDGE ( 'NONE', *, *, #146, .F. ) ;
#274 = EDGE_CURVE ( 'NONE', #174, #201, #231, .T. ) ;
#275 = DIRECTION ( 'NONE',  ( 1.903218546456022717E-15, 0.8571673007021097801, 0.5150380749100585964 ) ) ;
#276 = DIRECTION ( 'NONE',  ( 1.798245827342160317E-15, -0.8571673007021098911, 0.5150380749100582634 ) ) ;
#277 = DATE_AND_TIME ( #178, #309 ) ;
#278 = DIRECTION ( 'NONE',  ( -3.491481338843133355E-15, 1.224646799147353207E-16, -1.000000000000000000 ) ) ;
#279 = APPROVAL_ROLE ( '' ) ;
#280 = APPROVAL_DATE_TIME ( #183, #180 ) ;
#281 = AXIS2_PLACEMENT_3D ( 'NONE', #189, #107, #267 ) ;
#282 = EDGE_LOOP ( 'NONE', ( #328, #261, #330, #116 ) ) ;
#283 = CARTESIAN_POINT ( 'NONE',  ( 4.810310376634068579E-31, 1.124999999999997780, 1.377727649040769431E-16 ) ) ;
#284 = VECTOR ( 'NONE', #206, 1000.000000000000000 ) ;
#285 = AXIS2_PLACEMENT_3D ( 'NONE', #254, #278, #176 ) ;
#286 = DIRECTION ( 'NONE',  ( 3.491481338843133355E-15, -1.224646799147353207E-16, 1.000000000000000000 ) ) ;
#287 = CARTESIAN_POINT ( 'NONE',  ( 2.360130343403032243E-15, -1.124999999999994671, 0.6759681964060094694 ) ) ;
#288 = FACE_OUTER_BOUND ( 'NONE', #204, .T. ) ;
#289 = DIRECTION ( 'NONE',  ( 3.423875456688435594E-31, 1.000000000000000000, 9.637352644315640849E-17 ) ) ;
#290 = ADVANCED_FACE ( 'NONE', ( #57 ), #156, .T. ) ;
#291 = AXIS2_PLACEMENT_3D ( 'NONE', #103, #83, #127 ) ;
#292 = APPROVAL_PERSON_ORGANIZATION ( #311, #180, #253 ) ;
#293 = EDGE_CURVE ( 'NONE', #174, #115, #1, .T. ) ;
#294 = DIRECTION ( 'NONE',  ( -3.491481338843133355E-15, 1.224646799147353207E-16, -1.000000000000000000 ) ) ;
#295 = PERSON_AND_ORGANIZATION_ROLE ( 'design_supplier' ) ;
#296 = ORIENTED_EDGE ( 'NONE', *, *, #314, .T. ) ;
#297 = PRODUCT_DEFINITION_FORMATION_WITH_SPECIFIED_SOURCE ( 'ANY', '', #303, .NOT_KNOWN. ) ;
#298 = AXIS2_PLACEMENT_3D ( 'NONE', #315, #184, #89 ) ;
#299 = APPROVAL_ROLE ( '' ) ;
#300 = FACE_OUTER_BOUND ( 'NONE', #194, .T. ) ;
#301 = DIRECTION ( 'NONE',  ( 0.0000000000000000000, 1.000000000000000000, 0.0000000000000000000 ) ) ;
#302 = CARTESIAN_POINT ( 'NONE',  ( 0.0000000000000000000, 0.0000000000000000000, 0.0000000000000000000 ) ) ;
#303 = PRODUCT ( '4562', '4562', '', ( #97 ) ) ;
#304 = DIRECTION ( 'NONE',  ( -3.423875456688435594E-31, -1.000000000000000000, -9.637352644315640849E-17 ) ) ;
#305 = VERTEX_POINT ( 'NONE', #50 ) ;
#306 = CC_DESIGN_PERSON_AND_ORGANIZATION_ASSIGNMENT ( #13, #72, ( #303 ) ) ;
#307 = AXIS2_PLACEMENT_3D ( 'NONE', #218, #163, #270 ) ;
#308 =( NAMED_UNIT ( * ) SI_UNIT ( $, .STERADIAN. ) SOLID_ANGLE_UNIT ( ) );
#309 = LOCAL_TIME ( 9, 22, 32.00000000000000000, #24 ) ;
#310 = CARTESIAN_POINT ( 'NONE',  ( 1.377727649040761789E-16, -1.124999999999995337, -1.377727649040771403E-16 ) ) ;
#311 = PERSON_AND_ORGANIZATION ( #260, #223 ) ;
#312 = LINE ( 'NONE', #56, #185 ) ;
#313 = EDGE_CURVE ( 'NONE', #17, #81, #182, .T. ) ;
#314 = EDGE_CURVE ( 'NONE', #17, #219, #92, .T. ) ;
#315 = CARTESIAN_POINT ( 'NONE',  ( 1.396592535537253342E-13, 6.186509103480087367E-33, 40.00000000000000000 ) ) ;
#316 = APPLICATION_PROTOCOL_DEFINITION ( 'international standard', 'config_control_design', 1994, #209 ) ;
#317 = CONICAL_SURFACE ( 'NONE', #307, 1.124999999999994671, 1.029744258676649649 ) ;
#318 = FACE_OUTER_BOUND ( 'NONE', #203, .T. ) ;
#319 = AXIS2_PLACEMENT_3D ( 'NONE', #159, #244, #162 ) ;
#320 = CARTESIAN_POINT ( 'NONE',  ( 2.360130343403032637E-15, -8.278222880540290112E-17, 0.6759681964060095805 ) ) ;
#321 = EDGE_CURVE ( 'NONE', #81, #36, #312, .T. ) ;
#322 = APPLICATION_CONTEXT ( 'configuration controlled 3d designs of mechanical parts and assemblies' ) ;
#323 = PRODUCT_DEFINITION_SHAPE ( 'NONE', 'NONE',  #121 ) ;
#324 = COORDINATED_UNIVERSAL_TIME_OFFSET ( 1, 0, .AHEAD. ) ;
#325 = CARTESIAN_POINT ( 'NONE',  ( 2.360130343403032637E-15, -8.278222880540290112E-17, 0.6759681964060095805 ) ) ;
#326 = CIRCLE ( 'NONE', #319, 1.124999999999996003 ) ;
#327 = COORDINATED_UNIVERSAL_TIME_OFFSET ( 1, 0, .AHEAD. ) ;
#328 = ORIENTED_EDGE ( 'NONE', *, *, #214, .F. ) ;
#329 = AXIS2_PLACEMENT_3D ( 'NONE', #96, #73, #135 ) ;
#330 = ORIENTED_EDGE ( 'NONE', *, *, #86, .T. ) ;
#331 = CC_DESIGN_PERSON_AND_ORGANIZATION_ASSIGNMENT ( #78, #157, ( #297 ) ) ;
#332 = PERSON_AND_ORGANIZATION_ROLE ( 'creator' ) ;
#333 = ADVANCED_FACE ( 'NONE', ( #2 ), #255, .F. ) ;
#334 = CARTESIAN_POINT ( 'NONE',  ( 1.377727649040764993E-16, -1.124999999999997780, -1.377727649040774361E-16 ) ) ;
#335 = APPROVAL_STATUS ( 'not_yet_approved' ) ;
#336 = LINE ( 'NONE', #310, #191 ) ;
#337 = AXIS2_PLACEMENT_3D ( 'NONE', #69, #266, #12 ) ;
ENDSEC;
END-ISO-10303-21;
