ISO-10303-21;
HEADER;
FILE_DESCRIPTION (( 'STEP AP203' ),
    '1' );
FILE_NAME ('45571.step',
    '2021-11-10T06:36:10',
    ( '' ),
    ( '' ),
    'SwSTEP 2.0',
    'SolidWorks 2019',
    '' );
FILE_SCHEMA (( 'CONFIG_CONTROL_DESIGN' ));
ENDSEC;

DATA;
#1 = DIRECTION ( 'NONE',  ( 1.000000000000000000, 0.0000000000000000000, -3.491481338843133355E-15 ) ) ;
#2 = COORDINATED_UNIVERSAL_TIME_OFFSET ( 1, 0, .AHEAD. ) ;
#3 = EDGE_LOOP ( 'NONE', ( #228 ) ) ;
#4 = DIRECTION ( 'NONE',  ( -3.491481338843133355E-15, 1.224646799147353207E-16, -1.000000000000000000 ) ) ;
#5 = VERTEX_POINT ( 'NONE', #184 ) ;
#6 = CARTESIAN_POINT ( 'NONE',  ( 0.3000000000000011546, 0.0000000000000000000, 0.5999999999999987566 ) ) ;
#7 = DIRECTION ( 'NONE',  ( 3.491481338843133355E-15, -0.0000000000000000000, 1.000000000000000000 ) ) ;
#8 = DIRECTION ( 'NONE',  ( 3.491481338843133355E-15, -0.0000000000000000000, 1.000000000000000000 ) ) ;
#9 = AXIS2_PLACEMENT_3D ( 'NONE', #130, #194, #58 ) ;
#10 = ADVANCED_FACE ( 'NONE', ( #221, #48 ), #57, .T. ) ;
#11 = DIRECTION ( 'NONE',  ( 1.000000000000000000, 0.0000000000000000000, -3.534017240859016956E-15 ) ) ;
#12 = EDGE_CURVE ( 'NONE', #5, #5, #133, .T. ) ;
#13 = DATE_AND_TIME ( #148, #50 ) ;
#14 = DIRECTION ( 'NONE',  ( 0.0000000000000000000, 0.0000000000000000000, 1.000000000000000000 ) ) ;
#15 = CC_DESIGN_APPROVAL ( #53, ( #28 ) ) ;
#16 = SECURITY_CLASSIFICATION ( '', '', #143 ) ;
#17 = CARTESIAN_POINT ( 'NONE',  ( 0.2999999999999986011, 0.0000000000000000000, -1.047444401652935273E-15 ) ) ;
#18 = EDGE_LOOP ( 'NONE', ( #177 ) ) ;
#19 = ADVANCED_FACE ( 'NONE', ( #146, #129 ), #90, .T. ) ;
#20 = EDGE_LOOP ( 'NONE', ( #206 ) ) ;
#21 = AXIS2_PLACEMENT_3D ( 'NONE', #167, #162, #1 ) ;
#22 = UNCERTAINTY_MEASURE_WITH_UNIT (LENGTH_MEASURE( 1.000000000000000082E-05 ), #220, 'distance_accuracy_value', 'NONE');
#23 = APPROVAL_STATUS ( 'not_yet_approved' ) ;
#24 = CARTESIAN_POINT ( 'NONE',  ( 2.094888803305879224E-15, 0.0000000000000000000, 0.5999999999999998668 ) ) ;
#25 = FACE_OUTER_BOUND ( 'NONE', #94, .T. ) ;
#26 = CC_DESIGN_DATE_AND_TIME_ASSIGNMENT ( #174, #62, ( #28 ) ) ;
#27 = DIRECTION ( 'NONE',  ( 1.000000000000000000, 0.0000000000000000000, -3.491481338843133355E-15 ) ) ;
#28 = PRODUCT_DEFINITION ( 'UNKNOWN', '', #173, #163 ) ;
#29 = CIRCLE ( 'NONE', #64, 0.3681483474218590901 ) ;
#30 = ADVANCED_FACE ( 'NONE', ( #118, #231 ), #150, .F. ) ;
#31 = CARTESIAN_POINT ( 'NONE',  ( 1.316288464743861212E-13, -4.616918432785521081E-15, 37.69999999999999574 ) ) ;
#32 = COORDINATED_UNIVERSAL_TIME_OFFSET ( 1, 0, .AHEAD. ) ;
#33 = ORIENTED_EDGE ( 'NONE', *, *, #233, .F. ) ;
#34 = APPROVAL ( #141, 'UNSPECIFIED' ) ;
#35 = APPROVAL_ROLE ( '' ) ;
#36 = ORIENTED_EDGE ( 'NONE', *, *, #12, .F. ) ;
#37 = DIRECTION ( 'NONE',  ( 3.491481338843133355E-15, -1.224646799147353207E-16, 1.000000000000000000 ) ) ;
#38 = CARTESIAN_POINT ( 'NONE',  ( 1.326762908760390423E-13, -4.653657836759941941E-15, 38.00000000000000000 ) ) ;
#39 = AXIS2_PLACEMENT_3D ( 'NONE', #78, #74, #144 ) ;
#40 = CARTESIAN_POINT ( 'NONE',  ( 2.094888803305878830E-15, 1.124819836996388690E-32, 0.5999999999999997558 ) ) ;
#41 = DIRECTION ( 'NONE',  ( -3.491481338843133355E-15, 1.224646799147353207E-16, -1.000000000000000000 ) ) ;
#42 = PERSON_AND_ORGANIZATION_ROLE ( 'creator' ) ;
#43 = DIRECTION ( 'NONE',  ( 3.491481338843133355E-15, -0.0000000000000000000, 1.000000000000000000 ) ) ;
#44 = AXIS2_PLACEMENT_3D ( 'NONE', #200, #4, #198 ) ;
#45 = COORDINATED_UNIVERSAL_TIME_OFFSET ( 1, 0, .AHEAD. ) ;
#46 = PERSON_AND_ORGANIZATION ( #110, #55 ) ;
#47 = PRODUCT ( '45571', '45571', '', ( #219 ) ) ;
#48 = FACE_OUTER_BOUND ( 'NONE', #18, .T. ) ;
#49 = CLOSED_SHELL ( 'NONE', ( #10, #19, #140, #30, #69, #80 ) ) ;
#50 = LOCAL_TIME ( 7, 36, 10.00000000000000000, #2 ) ;
#51 = CARTESIAN_POINT ( 'NONE',  ( 0.0000000000000000000, 0.0000000000000000000, 0.0000000000000000000 ) ) ;
#52 = ORIENTED_EDGE ( 'NONE', *, *, #181, .T. ) ;
#53 = APPROVAL ( #89, 'UNSPECIFIED' ) ;
#54 = CARTESIAN_POINT ( 'NONE',  ( 1.326762908760390423E-13, 8.998558695971069014E-33, 38.00000000000000000 ) ) ;
#55 = ORGANIZATION ( 'UNSPECIFIED', 'UNSPECIFIED', '' ) ;
#56 = SHAPE_DEFINITION_REPRESENTATION ( #72, #216 ) ;
#57 = CYLINDRICAL_SURFACE ( 'NONE', #44, 1.499999999999996225 ) ;
#58 = DIRECTION ( 'NONE',  ( -4.275831445896958607E-31, -1.000000000000000000, -1.224646799147353207E-16 ) ) ;
#59 = CARTESIAN_POINT ( 'NONE',  ( 1.326762908760390423E-13, 1.199999999999994182, 38.00000000000000000 ) ) ;
#60 = CC_DESIGN_PERSON_AND_ORGANIZATION_ASSIGNMENT ( #107, #135, ( #47 ) ) ;
#61 = DIRECTION ( 'NONE',  ( 1.000000000000000000, 0.0000000000000000000, -3.614007241618359420E-15 ) ) ;
#62 = DATE_TIME_ROLE ( 'creation_date' ) ;
#63 = CARTESIAN_POINT ( 'NONE',  ( 0.3000000000000011546, 0.0000000000000000000, 0.5999999999999987566 ) ) ;
#64 = AXIS2_PLACEMENT_3D ( 'NONE', #117, #7, #11 ) ;
#65 = CC_DESIGN_APPROVAL ( #128, ( #173 ) ) ;
#66 = EDGE_CURVE ( 'NONE', #188, #188, #86, .T. ) ;
#67 = COORDINATED_UNIVERSAL_TIME_OFFSET ( 1, 0, .AHEAD. ) ;
#68 = AXIS2_PLACEMENT_3D ( 'NONE', #31, #176, #76 ) ;
#69 = ADVANCED_FACE ( 'NONE', ( #183, #115 ), #105, .T. ) ;
#70 = PERSON_AND_ORGANIZATION ( #110, #55 ) ;
#71 = EDGE_LOOP ( 'NONE', ( #142 ) ) ;
#72 = PRODUCT_DEFINITION_SHAPE ( 'NONE', 'NONE',  #28 ) ;
#73 = DATE_AND_TIME ( #99, #134 ) ;
#74 = DIRECTION ( 'NONE',  ( 3.491481338843133355E-15, -0.0000000000000000000, 1.000000000000000000 ) ) ;
#75 = AXIS2_PLACEMENT_3D ( 'NONE', #24, #98, #212 ) ;
#76 = DIRECTION ( 'NONE',  ( 0.0000000000000000000, 1.000000000000000000, 0.0000000000000000000 ) ) ;
#77 = PLANE ( 'NONE',  #180 ) ;
#78 = CARTESIAN_POINT ( 'NONE',  ( 1.865067618067261384E-14, 0.0000000000000000000, 5.341765964257544574 ) ) ;
#79 = ORIENTED_EDGE ( 'NONE', *, *, #233, .T. ) ;
#80 = ADVANCED_FACE ( 'NONE', ( #226 ), #187, .F. ) ;
#81 = APPROVAL_PERSON_ORGANIZATION ( #182, #128, #201 ) ;
#82 = PLANE ( 'NONE',  #169 ) ;
#83 = PERSON_AND_ORGANIZATION_ROLE ( 'design_supplier' ) ;
#84 = DATE_AND_TIME ( #215, #137 ) ;
#85 = APPROVAL_DATE_TIME ( #13, #128 ) ;
#86 = CIRCLE ( 'NONE', #95, 1.199999999999998845 ) ;
#87 = PRODUCT_RELATED_PRODUCT_CATEGORY ( 'detail', '', ( #47 ) ) ;
#88 = DIRECTION ( 'NONE',  ( 1.000000000000000000, 0.0000000000000000000, 0.0000000000000000000 ) ) ;
#89 = APPROVAL_STATUS ( 'not_yet_approved' ) ;
#90 = CONICAL_SURFACE ( 'NONE', #91, 1.199999999999998845, 0.7853981633974450594 ) ;
#91 = AXIS2_PLACEMENT_3D ( 'NONE', #38, #111, #225 ) ;
#92 = COORDINATED_UNIVERSAL_TIME_OFFSET ( 1, 0, .AHEAD. ) ;
#93 = EDGE_LOOP ( 'NONE', ( #211 ) ) ;
#94 = EDGE_LOOP ( 'NONE', ( #97 ) ) ;
#95 = AXIS2_PLACEMENT_3D ( 'NONE', #229, #41, #170 ) ;
#96 = FACE_OUTER_BOUND ( 'NONE', #149, .T. ) ;
#97 = ORIENTED_EDGE ( 'NONE', *, *, #181, .F. ) ;
#98 = DIRECTION ( 'NONE',  ( 3.491481338843133355E-15, -0.0000000000000000000, 1.000000000000000000 ) ) ;
#99 = CALENDAR_DATE ( 2021, 10, 11 ) ;
#100 = ORIENTED_EDGE ( 'NONE', *, *, #66, .F. ) ;
#101 = ADVANCED_FACE ( 'NONE', ( #96, #25 ), #102, .T. ) ;
#102 = CYLINDRICAL_SURFACE ( 'NONE', #21, 0.2999999999999988232 ) ;
#103 = CIRCLE ( 'NONE', #193, 0.2999999999999986011 ) ;
#104 = PERSON_AND_ORGANIZATION ( #110, #55 ) ;
#105 = CONICAL_SURFACE ( 'NONE', #240, 1.499999999999996225, 0.2617993877991428020 ) ;
#106 = PERSON_AND_ORGANIZATION ( #110, #55 ) ;
#107 = PERSON_AND_ORGANIZATION ( #110, #55 ) ;
#108 = LOCAL_TIME ( 7, 36, 10.00000000000000000, #92 ) ;
#109 = EDGE_LOOP ( 'NONE', ( #36 ) ) ;
#110 = PERSON ( 'UNSPECIFIED', 'UNSPECIFIED', 'UNSPECIFIED', ('UNSPECIFIED'), ('UNSPECIFIED'), ('UNSPECIFIED') ) ;
#111 = DIRECTION ( 'NONE',  ( -3.491481338843133355E-15, 1.224646799147353207E-16, -1.000000000000000000 ) ) ;
#112 = DIRECTION ( 'NONE',  ( -4.275831445896958607E-31, -1.000000000000000000, -1.224646799147353207E-16 ) ) ;
#113 = PERSON_AND_ORGANIZATION_ROLE ( 'classification_officer' ) ;
#114 = ORIENTED_EDGE ( 'NONE', *, *, #147, .T. ) ;
#115 = FACE_OUTER_BOUND ( 'NONE', #109, .T. ) ;
#116 = DIRECTION ( 'NONE',  ( 3.491481338843133355E-15, -1.224646799147353207E-16, 1.000000000000000000 ) ) ;
#117 = CARTESIAN_POINT ( 'NONE',  ( 3.902212535531129294E-15, 0.0000000000000000000, 1.117638090205026913 ) ) ;
#118 = FACE_OUTER_BOUND ( 'NONE', #158, .T. ) ;
#119 = CLOSED_SHELL ( 'NONE', ( #234, #101, #125 ) ) ;
#120 = CARTESIAN_POINT ( 'NONE',  ( 1.865067618067261384E-14, 0.0000000000000000000, 5.341765964257544574 ) ) ;
#121 =( GEOMETRIC_REPRESENTATION_CONTEXT ( 3 ) GLOBAL_UNCERTAINTY_ASSIGNED_CONTEXT ( ( #22 ) ) GLOBAL_UNIT_ASSIGNED_CONTEXT ( ( #220, #126, #192 ) ) REPRESENTATION_CONTEXT ( 'NONE', 'WORKASPACE' ) );
#122 = CC_DESIGN_DATE_AND_TIME_ASSIGNMENT ( #73, #223, ( #16 ) ) ;
#123 = APPLICATION_PROTOCOL_DEFINITION ( 'international standard', 'config_control_design', 1994, #154 ) ;
#124 = CARTESIAN_POINT ( 'NONE',  ( 0.0000000000000000000, 0.0000000000000000000, 0.0000000000000000000 ) ) ;
#125 = ADVANCED_FACE ( 'NONE', ( #165 ), #82, .F. ) ;
#126 =( NAMED_UNIT ( * ) PLANE_ANGLE_UNIT ( ) SI_UNIT ( $, .RADIAN. ) );
#127 = LOCAL_TIME ( 7, 36, 10.00000000000000000, #67 ) ;
#128 = APPROVAL ( #23, 'UNSPECIFIED' ) ;
#129 = FACE_BOUND ( 'NONE', #20, .T. ) ;
#130 = CARTESIAN_POINT ( 'NONE',  ( 2.094888803305878830E-15, 1.124819836996388690E-32, 0.5999999999999997558 ) ) ;
#131 = AXIS2_PLACEMENT_3D ( 'NONE', #40, #116, #112 ) ;
#132 = APPLICATION_CONTEXT ( 'configuration controlled 3d designs of mechanical parts and assemblies' ) ;
#133 = CIRCLE ( 'NONE', #39, 1.499999999999996225 ) ;
#134 = LOCAL_TIME ( 7, 36, 10.00000000000000000, #32 ) ;
#135 = PERSON_AND_ORGANIZATION_ROLE ( 'design_owner' ) ;
#136 = CC_DESIGN_PERSON_AND_ORGANIZATION_ASSIGNMENT ( #205, #113, ( #16 ) ) ;
#137 = LOCAL_TIME ( 7, 36, 10.00000000000000000, #45 ) ;
#138 = CC_DESIGN_APPROVAL ( #34, ( #16 ) ) ;
#139 = APPROVAL_ROLE ( '' ) ;
#140 = ADVANCED_FACE ( 'NONE', ( #242 ), #77, .F. ) ;
#141 = APPROVAL_STATUS ( 'not_yet_approved' ) ;
#142 = ORIENTED_EDGE ( 'NONE', *, *, #155, .F. ) ;
#143 = SECURITY_CLASSIFICATION_LEVEL ( 'unclassified' ) ;
#144 = DIRECTION ( 'NONE',  ( 1.000000000000000000, 0.0000000000000000000, -3.469446951953622866E-15 ) ) ;
#145 = DIRECTION ( 'NONE',  ( -3.491481338843133355E-15, 1.224646799147353207E-16, -1.000000000000000000 ) ) ;
#146 = FACE_OUTER_BOUND ( 'NONE', #160, .T. ) ;
#147 = EDGE_CURVE ( 'NONE', #213, #213, #152, .T. ) ;
#148 = CALENDAR_DATE ( 2021, 10, 11 ) ;
#149 = EDGE_LOOP ( 'NONE', ( #166 ) ) ;
#150 = TOROIDAL_SURFACE ( 'NONE', #171, 2.299999999999999378, 2.000000000000000000 ) ;
#151 = VERTEX_POINT ( 'NONE', #17 ) ;
#152 = CIRCLE ( 'NONE', #75, 0.2999999999999990452 ) ;
#153 = APPROVAL_DATE_TIME ( #84, #53 ) ;
#154 = APPLICATION_CONTEXT ( 'configuration controlled 3d designs of mechanical parts and assemblies' ) ;
#155 = EDGE_CURVE ( 'NONE', #232, #232, #29, .T. ) ;
#156 = CC_DESIGN_PERSON_AND_ORGANIZATION_ASSIGNMENT ( #104, #42, ( #173 ) ) ;
#157 = PERSON_AND_ORGANIZATION ( #110, #55 ) ;
#158 = EDGE_LOOP ( 'NONE', ( #114 ) ) ;
#159 = CIRCLE ( 'NONE', #199, 0.2999999999999990452 ) ;
#160 = EDGE_LOOP ( 'NONE', ( #33 ) ) ;
#161 = MANIFOLD_SOLID_BREP ( 'Corps-Déplacer/Copier1[1]', #49 ) ;
#162 = DIRECTION ( 'NONE',  ( 3.491481338843133355E-15, -0.0000000000000000000, 1.000000000000000000 ) ) ;
#163 = DESIGN_CONTEXT ( 'detailed design', #154, 'design' ) ;
#164 = EDGE_LOOP ( 'NONE', ( #52 ) ) ;
#165 = FACE_OUTER_BOUND ( 'NONE', #185, .T. ) ;
#166 = ORIENTED_EDGE ( 'NONE', *, *, #186, .T. ) ;
#167 = CARTESIAN_POINT ( 'NONE',  ( -1.786038389295302186E-30, 0.0000000000000000000, -5.115417256925931626E-16 ) ) ;
#168 = VERTEX_POINT ( 'NONE', #6 ) ;
#169 = AXIS2_PLACEMENT_3D ( 'NONE', #202, #37, #179 ) ;
#170 = DIRECTION ( 'NONE',  ( 0.0000000000000000000, 1.000000000000000000, 0.0000000000000000000 ) ) ;
#171 = AXIS2_PLACEMENT_3D ( 'NONE', #190, #214, #27 ) ;
#172 = CC_DESIGN_PERSON_AND_ORGANIZATION_ASSIGNMENT ( #46, #83, ( #173 ) ) ;
#173 = PRODUCT_DEFINITION_FORMATION_WITH_SPECIFIED_SOURCE ( 'ANY', '', #47, .NOT_KNOWN. ) ;
#174 = DATE_AND_TIME ( #196, #127 ) ;
#175 = APPLICATION_PROTOCOL_DEFINITION ( 'international standard', 'config_control_design', 1994, #132 ) ;
#176 = DIRECTION ( 'NONE',  ( -3.491481338843133355E-15, 1.224646799147353207E-16, -1.000000000000000000 ) ) ;
#177 = ORIENTED_EDGE ( 'NONE', *, *, #12, .T. ) ;
#178 = CALENDAR_DATE ( 2021, 10, 11 ) ;
#179 = DIRECTION ( 'NONE',  ( -4.275831445896958607E-31, -1.000000000000000000, -1.224646799147353207E-16 ) ) ;
#180 = AXIS2_PLACEMENT_3D ( 'NONE', #54, #145, #209 ) ;
#181 = EDGE_CURVE ( 'NONE', #168, #168, #159, .T. ) ;
#182 = PERSON_AND_ORGANIZATION ( #110, #55 ) ;
#183 = FACE_BOUND ( 'NONE', #3, .T. ) ;
#184 = CARTESIAN_POINT ( 'NONE',  ( 1.500000000000014877, 0.0000000000000000000, 5.341765964257539245 ) ) ;
#185 = EDGE_LOOP ( 'NONE', ( #243 ) ) ;
#186 = EDGE_CURVE ( 'NONE', #151, #151, #103, .T. ) ;
#187 = PLANE ( 'NONE',  #9 ) ;
#188 = VERTEX_POINT ( 'NONE', #59 ) ;
#189 = CARTESIAN_POINT ( 'NONE',  ( 0.3681483474218629759, 0.0000000000000000000, 1.117638090205025581 ) ) ;
#190 = CARTESIAN_POINT ( 'NONE',  ( 2.094888803305879224E-15, 0.0000000000000000000, 0.5999999999999998668 ) ) ;
#191 = CC_DESIGN_SECURITY_CLASSIFICATION ( #16, ( #173 ) ) ;
#192 =( NAMED_UNIT ( * ) SI_UNIT ( $, .STERADIAN. ) SOLID_ANGLE_UNIT ( ) );
#193 = AXIS2_PLACEMENT_3D ( 'NONE', #51, #238, #197 ) ;
#194 = DIRECTION ( 'NONE',  ( 3.491481338843133355E-15, -1.224646799147353207E-16, 1.000000000000000000 ) ) ;
#195 = CC_DESIGN_PERSON_AND_ORGANIZATION_ASSIGNMENT ( #106, #222, ( #28 ) ) ;
#196 = CALENDAR_DATE ( 2021, 10, 11 ) ;
#197 = DIRECTION ( 'NONE',  ( 1.000000000000000000, 0.0000000000000000000, -3.491481338843133750E-15 ) ) ;
#198 = DIRECTION ( 'NONE',  ( 4.275831445896958607E-31, 1.000000000000000000, 1.224646799147353207E-16 ) ) ;
#199 = AXIS2_PLACEMENT_3D ( 'NONE', #230, #8, #61 ) ;
#200 = CARTESIAN_POINT ( 'NONE',  ( 0.0000000000000000000, 0.0000000000000000000, 0.0000000000000000000 ) ) ;
#201 = APPROVAL_ROLE ( '' ) ;
#202 = CARTESIAN_POINT ( 'NONE',  ( -6.413803915257457113E-31, 2.249659577954772199E-32, -1.836986451539393076E-16 ) ) ;
#203 = DATE_AND_TIME ( #178, #108 ) ;
#204 = EDGE_LOOP ( 'NONE', ( #100 ) ) ;
#205 = PERSON_AND_ORGANIZATION ( #110, #55 ) ;
#206 = ORIENTED_EDGE ( 'NONE', *, *, #66, .T. ) ;
#207 = DIRECTION ( 'NONE',  ( 1.000000000000000000, 0.0000000000000000000, -3.469446951953622866E-15 ) ) ;
#208 = PLANE ( 'NONE',  #131 ) ;
#209 = DIRECTION ( 'NONE',  ( 4.275831445896958607E-31, 1.000000000000000000, 1.224646799147353207E-16 ) ) ;
#210 = APPROVAL_DATE_TIME ( #203, #34 ) ;
#211 = ORIENTED_EDGE ( 'NONE', *, *, #147, .F. ) ;
#212 = DIRECTION ( 'NONE',  ( 1.000000000000000000, 0.0000000000000000000, -3.614007241618359420E-15 ) ) ;
#213 = VERTEX_POINT ( 'NONE', #63 ) ;
#214 = DIRECTION ( 'NONE',  ( 3.491481338843133355E-15, -0.0000000000000000000, 1.000000000000000000 ) ) ;
#215 = CALENDAR_DATE ( 2021, 10, 11 ) ;
#216 = ADVANCED_BREP_SHAPE_REPRESENTATION ( '45571', ( #161, #241, #217 ), #121 ) ;
#217 = AXIS2_PLACEMENT_3D ( 'NONE', #124, #14, #88 ) ;
#218 = CARTESIAN_POINT ( 'NONE',  ( 1.316288464743861212E-13, 1.499999999999994005, 37.69999999999999574 ) ) ;
#219 = MECHANICAL_CONTEXT ( 'NONE', #132, 'mechanical' ) ;
#220 =( LENGTH_UNIT ( ) NAMED_UNIT ( * ) SI_UNIT ( .MILLI., .METRE. ) );
#221 = FACE_OUTER_BOUND ( 'NONE', #239, .T. ) ;
#222 = PERSON_AND_ORGANIZATION_ROLE ( 'creator' ) ;
#223 = DATE_TIME_ROLE ( 'classification_date' ) ;
#224 = FACE_OUTER_BOUND ( 'NONE', #164, .T. ) ;
#225 = DIRECTION ( 'NONE',  ( 0.0000000000000000000, 1.000000000000000000, 0.0000000000000000000 ) ) ;
#226 = FACE_OUTER_BOUND ( 'NONE', #93, .T. ) ;
#227 = CIRCLE ( 'NONE', #68, 1.499999999999998446 ) ;
#228 = ORIENTED_EDGE ( 'NONE', *, *, #155, .T. ) ;
#229 = CARTESIAN_POINT ( 'NONE',  ( 1.326762908760390423E-13, -4.653657836759941941E-15, 38.00000000000000000 ) ) ;
#230 = CARTESIAN_POINT ( 'NONE',  ( 2.094888803305879224E-15, 0.0000000000000000000, 0.5999999999999998668 ) ) ;
#231 = FACE_OUTER_BOUND ( 'NONE', #71, .T. ) ;
#232 = VERTEX_POINT ( 'NONE', #189 ) ;
#233 = EDGE_CURVE ( 'NONE', #237, #237, #227, .T. ) ;
#234 = ADVANCED_FACE ( 'NONE', ( #224 ), #208, .T. ) ;
#235 = APPROVAL_PERSON_ORGANIZATION ( #70, #53, #139 ) ;
#236 = APPROVAL_PERSON_ORGANIZATION ( #157, #34, #35 ) ;
#237 = VERTEX_POINT ( 'NONE', #218 ) ;
#238 = DIRECTION ( 'NONE',  ( 3.491481338843133355E-15, -0.0000000000000000000, 1.000000000000000000 ) ) ;
#239 = EDGE_LOOP ( 'NONE', ( #79 ) ) ;
#240 = AXIS2_PLACEMENT_3D ( 'NONE', #120, #43, #207 ) ;
#241 = MANIFOLD_SOLID_BREP ( 'Corps-Déplacer/Copier1[2]', #119 ) ;
#242 = FACE_OUTER_BOUND ( 'NONE', #204, .T. ) ;
#243 = ORIENTED_EDGE ( 'NONE', *, *, #186, .F. ) ;
ENDSEC;
END-ISO-10303-21;
