ISO-10303-21;
HEADER;
FILE_DESCRIPTION (( 'STEP AP203' ),
    '1' );
FILE_NAME ('45550.step',
    '2021-11-16T14:58:57',
    ( '' ),
    ( '' ),
    'SwSTEP 2.0',
    'SolidWorks 2019',
    '' );
FILE_SCHEMA (( 'CONFIG_CONTROL_DESIGN' ));
ENDSEC;

DATA;
#1 = DIRECTION ( 'NONE',  ( -3.491481338843133355E-15, 1.224646799147353454E-16, -1.000000000000000000 ) ) ;
#2 = FACE_BOUND ( 'NONE', #58, .T. ) ;
#3 = FACE_OUTER_BOUND ( 'NONE', #101, .T. ) ;
#4 = APPROVAL ( #194, 'UNSPECIFIED' ) ;
#5 = MANIFOLD_SOLID_BREP ( 'Corps-Déplacer/Copier1[2]', #162 ) ;
#6 = DIRECTION ( 'NONE',  ( 1.000000000000000000, 0.0000000000000000000, 0.0000000000000000000 ) ) ;
#7 = LOCAL_TIME ( 15, 58, 57.00000000000000000, #97 ) ;
#8 = ADVANCED_BREP_SHAPE_REPRESENTATION ( '45550', ( #72, #5, #25 ), #171 ) ;
#9 = CALENDAR_DATE ( 2021, 16, 11 ) ;
#10 = APPLICATION_PROTOCOL_DEFINITION ( 'international standard', 'config_control_design', 1994, #168 ) ;
#11 = AXIS2_PLACEMENT_3D ( 'NONE', #35, #17, #64 ) ;
#12 = EDGE_LOOP ( 'NONE', ( #27 ) ) ;
#13 = ORIENTED_EDGE ( 'NONE', *, *, #200, .T. ) ;
#14 = CYLINDRICAL_SURFACE ( 'NONE', #22, 9.999999999999996447 ) ;
#15 = CARTESIAN_POINT ( 'NONE',  ( 0.0000000000000000000, 0.0000000000000000000, 0.0000000000000000000 ) ) ;
#16 = CYLINDRICAL_SURFACE ( 'NONE', #147, 9.999999999999991118 ) ;
#17 = DIRECTION ( 'NONE',  ( -3.491481338843133355E-15, 1.224646799147353454E-16, -1.000000000000000000 ) ) ;
#18 = CARTESIAN_POINT ( 'NONE',  ( 8.551737199941402409E-31, 9.999999999999987566, 2.449314880994017066E-16 ) ) ;
#19 = DIRECTION ( 'NONE',  ( -3.491481338843133355E-15, 1.224646799147353454E-16, -1.000000000000000000 ) ) ;
#20 = CALENDAR_DATE ( 2021, 16, 11 ) ;
#21 = PERSON_AND_ORGANIZATION ( #31, #83 ) ;
#22 = AXIS2_PLACEMENT_3D ( 'NONE', #73, #132, #29 ) ;
#23 = PERSON_AND_ORGANIZATION ( #31, #83 ) ;
#24 = ORIENTED_EDGE ( 'NONE', *, *, #200, .F. ) ;
#25 = AXIS2_PLACEMENT_3D ( 'NONE', #172, #82, #6 ) ;
#26 = CARTESIAN_POINT ( 'NONE',  ( 1.326762908760390423E-13, -4.653657836759942730E-15, 38.00000000000000000 ) ) ;
#27 = ORIENTED_EDGE ( 'NONE', *, *, #28, .T. ) ;
#28 = EDGE_CURVE ( 'NONE', #65, #65, #44, .T. ) ;
#29 = DIRECTION ( 'NONE',  ( 4.275831445896959482E-31, 1.000000000000000000, 1.224646799147353454E-16 ) ) ;
#30 = CC_DESIGN_DATE_AND_TIME_ASSIGNMENT ( #158, #127, ( #80 ) ) ;
#31 = PERSON ( 'UNSPECIFIED', 'UNSPECIFIED', 'UNSPECIFIED', ('UNSPECIFIED'), ('UNSPECIFIED'), ('UNSPECIFIED') ) ;
#32 = PLANE ( 'NONE',  #195 ) ;
#33 = CIRCLE ( 'NONE', #117, 9.999999999999987566 ) ;
#34 = VERTEX_POINT ( 'NONE', #49 ) ;
#35 = CARTESIAN_POINT ( 'NONE',  ( 3.631140592396858689E-13, -1.273632671113247592E-14, 104.0000000000000000 ) ) ;
#36 = DESIGN_CONTEXT ( 'detailed design', #168, 'design' ) ;
#37 = PERSON_AND_ORGANIZATION ( #31, #83 ) ;
#38 = APPROVAL_DATE_TIME ( #54, #52 ) ;
#39 = SHAPE_DEFINITION_REPRESENTATION ( #96, #8 ) ;
#40 = CALENDAR_DATE ( 2021, 16, 11 ) ;
#41 = EDGE_LOOP ( 'NONE', ( #116 ) ) ;
#42 = LOCAL_TIME ( 15, 58, 57.00000000000000000, #173 ) ;
#43 = DIRECTION ( 'NONE',  ( 0.0000000000000000000, 1.000000000000000000, 0.0000000000000000000 ) ) ;
#44 = CIRCLE ( 'NONE', #133, 9.999999999999992895 ) ;
#45 = DIRECTION ( 'NONE',  ( -4.275831445896959482E-31, -1.000000000000000000, -1.224646799147353454E-16 ) ) ;
#46 = DIRECTION ( 'NONE',  ( 3.491481338843133355E-15, -1.224646799147353454E-16, 1.000000000000000000 ) ) ;
#47 = PRODUCT_DEFINITION ( 'UNKNOWN', '', #151, #36 ) ;
#48 = DIRECTION ( 'NONE',  ( 4.275831445896960358E-31, 1.000000000000000000, 1.224646799147353700E-16 ) ) ;
#49 = CARTESIAN_POINT ( 'NONE',  ( 3.613683185702642581E-13, 9.999999999999987566, 103.4999999999999858 ) ) ;
#50 = PLANE ( 'NONE',  #181 ) ;
#51 = UNCERTAINTY_MEASURE_WITH_UNIT (LENGTH_MEASURE( 1.000000000000000082E-05 ), #110, 'distance_accuracy_value', 'NONE');
#52 = APPROVAL ( #92, 'UNSPECIFIED' ) ;
#53 = APPROVAL_ROLE ( '' ) ;
#54 = DATE_AND_TIME ( #20, #7 ) ;
#55 = DATE_AND_TIME ( #9, #130 ) ;
#56 = MECHANICAL_CONTEXT ( 'NONE', #176, 'mechanical' ) ;
#57 = EDGE_CURVE ( 'NONE', #34, #34, #129, .T. ) ;
#58 = EDGE_LOOP ( 'NONE', ( #145 ) ) ;
#59 = CC_DESIGN_SECURITY_CLASSIFICATION ( #80, ( #151 ) ) ;
#60 = EDGE_LOOP ( 'NONE', ( #197 ) ) ;
#61 = ORIENTED_EDGE ( 'NONE', *, *, #99, .F. ) ;
#62 = CARTESIAN_POINT ( 'NONE',  ( 1.326762908760390423E-13, 7.498798913309277092E-32, 38.00000000000000000 ) ) ;
#63 = ADVANCED_FACE ( 'NONE', ( #103, #164 ), #14, .T. ) ;
#64 = DIRECTION ( 'NONE',  ( 0.0000000000000000000, 1.000000000000000000, 0.0000000000000000000 ) ) ;
#65 = VERTEX_POINT ( 'NONE', #120 ) ;
#66 = CARTESIAN_POINT ( 'NONE',  ( 3.631140592396858689E-13, 9.499999999999987566, 104.0000000000000000 ) ) ;
#67 = APPLICATION_PROTOCOL_DEFINITION ( 'international standard', 'config_control_design', 1994, #176 ) ;
#68 = APPROVAL_PERSON_ORGANIZATION ( #37, #52, #143 ) ;
#69 = PERSON_AND_ORGANIZATION ( #31, #83 ) ;
#70 = DATE_TIME_ROLE ( 'creation_date' ) ;
#71 = PERSON_AND_ORGANIZATION ( #31, #83 ) ;
#72 = MANIFOLD_SOLID_BREP ( 'Corps-Déplacer/Copier1[1]', #196 ) ;
#73 = CARTESIAN_POINT ( 'NONE',  ( 0.0000000000000000000, 0.0000000000000000000, 0.0000000000000000000 ) ) ;
#74 = DIRECTION ( 'NONE',  ( 3.491481338843133355E-15, -1.224646799147353454E-16, 1.000000000000000000 ) ) ;
#75 = APPROVAL_PERSON_ORGANIZATION ( #71, #100, #128 ) ;
#76 = DIRECTION ( 'NONE',  ( -3.491481338843133355E-15, 1.224646799147353454E-16, -1.000000000000000000 ) ) ;
#77 = VERTEX_POINT ( 'NONE', #137 ) ;
#78 = FACE_OUTER_BOUND ( 'NONE', #131, .T. ) ;
#79 =( NAMED_UNIT ( * ) SI_UNIT ( $, .STERADIAN. ) SOLID_ANGLE_UNIT ( ) );
#80 = SECURITY_CLASSIFICATION ( '', '', #193 ) ;
#81 = CALENDAR_DATE ( 2021, 16, 11 ) ;
#82 = DIRECTION ( 'NONE',  ( 0.0000000000000000000, 0.0000000000000000000, 1.000000000000000000 ) ) ;
#83 = ORGANIZATION ( 'UNSPECIFIED', 'UNSPECIFIED', '' ) ;
#84 = ORIENTED_EDGE ( 'NONE', *, *, #144, .T. ) ;
#85 = ADVANCED_FACE ( 'NONE', ( #134, #2 ), #95, .T. ) ;
#86 = DIRECTION ( 'NONE',  ( -3.491481338843133355E-15, 1.224646799147353454E-16, -1.000000000000000000 ) ) ;
#87 = ADVANCED_FACE ( 'NONE', ( #184, #88 ), #16, .T. ) ;
#88 = FACE_OUTER_BOUND ( 'NONE', #178, .T. ) ;
#89 = PLANE ( 'NONE',  #155 ) ;
#90 = CC_DESIGN_PERSON_AND_ORGANIZATION_ASSIGNMENT ( #69, #112, ( #47 ) ) ;
#91 = APPROVAL_STATUS ( 'not_yet_approved' ) ;
#92 = APPROVAL_STATUS ( 'not_yet_approved' ) ;
#93 = COORDINATED_UNIVERSAL_TIME_OFFSET ( 1, 0, .AHEAD. ) ;
#94 = CC_DESIGN_PERSON_AND_ORGANIZATION_ASSIGNMENT ( #23, #113, ( #80 ) ) ;
#95 = CONICAL_SURFACE ( 'NONE', #121, 9.500000000000000000, 0.7853981633974344012 ) ;
#96 = PRODUCT_DEFINITION_SHAPE ( 'NONE', 'NONE',  #47 ) ;
#97 = COORDINATED_UNIVERSAL_TIME_OFFSET ( 1, 0, .AHEAD. ) ;
#98 = ORIENTED_EDGE ( 'NONE', *, *, #57, .F. ) ;
#99 = EDGE_CURVE ( 'NONE', #109, #109, #115, .T. ) ;
#100 = APPROVAL ( #91, 'UNSPECIFIED' ) ;
#101 = EDGE_LOOP ( 'NONE', ( #61 ) ) ;
#102 = AXIS2_PLACEMENT_3D ( 'NONE', #62, #118, #45 ) ;
#103 = FACE_OUTER_BOUND ( 'NONE', #201, .T. ) ;
#104 = CC_DESIGN_PERSON_AND_ORGANIZATION_ASSIGNMENT ( #21, #126, ( #151 ) ) ;
#105 = CARTESIAN_POINT ( 'NONE',  ( 1.326762908760390423E-13, 7.498798913309277092E-32, 38.00000000000000000 ) ) ;
#106 = DIRECTION ( 'NONE',  ( -4.275831445896959482E-31, -1.000000000000000000, -1.224646799147353454E-16 ) ) ;
#107 = DIRECTION ( 'NONE',  ( -3.491481338843133355E-15, 1.224646799147353454E-16, -1.000000000000000000 ) ) ;
#108 = CC_DESIGN_APPROVAL ( #4, ( #80 ) ) ;
#109 = VERTEX_POINT ( 'NONE', #66 ) ;
#110 =( LENGTH_UNIT ( ) NAMED_UNIT ( * ) SI_UNIT ( .MILLI., .METRE. ) );
#111 = CC_DESIGN_PERSON_AND_ORGANIZATION_ASSIGNMENT ( #159, #188, ( #151 ) ) ;
#112 = PERSON_AND_ORGANIZATION_ROLE ( 'creator' ) ;
#113 = PERSON_AND_ORGANIZATION_ROLE ( 'classification_officer' ) ;
#114 = APPROVAL_DATE_TIME ( #55, #4 ) ;
#115 = CIRCLE ( 'NONE', #11, 9.500000000000000000 ) ;
#116 = ORIENTED_EDGE ( 'NONE', *, *, #57, .T. ) ;
#117 = AXIS2_PLACEMENT_3D ( 'NONE', #138, #76, #48 ) ;
#118 = DIRECTION ( 'NONE',  ( 3.491481338843133355E-15, -1.224646799147353454E-16, 1.000000000000000000 ) ) ;
#119 = DIRECTION ( 'NONE',  ( 0.0000000000000000000, 1.000000000000000000, 0.0000000000000000000 ) ) ;
#120 = CARTESIAN_POINT ( 'NONE',  ( 1.326762908760390423E-13, 9.999999999999987566, 38.00000000000000000 ) ) ;
#121 = AXIS2_PLACEMENT_3D ( 'NONE', #154, #166, #119 ) ;
#122 = ADVANCED_FACE ( 'NONE', ( #149 ), #32, .F. ) ;
#123 = PERSON_AND_ORGANIZATION ( #31, #83 ) ;
#124 = PERSON_AND_ORGANIZATION ( #31, #83 ) ;
#125 = CC_DESIGN_APPROVAL ( #100, ( #47 ) ) ;
#126 = PERSON_AND_ORGANIZATION_ROLE ( 'creator' ) ;
#127 = DATE_TIME_ROLE ( 'classification_date' ) ;
#128 = APPROVAL_ROLE ( '' ) ;
#129 = CIRCLE ( 'NONE', #167, 10.00000000000000000 ) ;
#130 = LOCAL_TIME ( 15, 58, 57.00000000000000000, #142 ) ;
#131 = EDGE_LOOP ( 'NONE', ( #24 ) ) ;
#132 = DIRECTION ( 'NONE',  ( -3.491481338843133355E-15, 1.224646799147353454E-16, -1.000000000000000000 ) ) ;
#133 = AXIS2_PLACEMENT_3D ( 'NONE', #26, #180, #43 ) ;
#134 = FACE_OUTER_BOUND ( 'NONE', #146, .T. ) ;
#135 = ADVANCED_FACE ( 'NONE', ( #78 ), #187, .T. ) ;
#136 = CARTESIAN_POINT ( 'NONE',  ( 1.326762908760390423E-13, -4.653657836759942730E-15, 38.00000000000000000 ) ) ;
#137 = CARTESIAN_POINT ( 'NONE',  ( 1.326762908760390423E-13, 9.999999999999987566, 38.00000000000000000 ) ) ;
#138 = CARTESIAN_POINT ( 'NONE',  ( -3.420657725902813987E-30, 1.199805219750526158E-31, -9.797153110479503665E-16 ) ) ;
#139 = CC_DESIGN_DATE_AND_TIME_ASSIGNMENT ( #174, #70, ( #47 ) ) ;
#140 =( NAMED_UNIT ( * ) PLANE_ANGLE_UNIT ( ) SI_UNIT ( $, .RADIAN. ) );
#141 = CC_DESIGN_APPROVAL ( #52, ( #151 ) ) ;
#142 = COORDINATED_UNIVERSAL_TIME_OFFSET ( 1, 0, .AHEAD. ) ;
#143 = APPROVAL_ROLE ( '' ) ;
#144 = EDGE_CURVE ( 'NONE', #153, #153, #33, .T. ) ;
#145 = ORIENTED_EDGE ( 'NONE', *, *, #99, .T. ) ;
#146 = EDGE_LOOP ( 'NONE', ( #98 ) ) ;
#147 = AXIS2_PLACEMENT_3D ( 'NONE', #15, #19, #203 ) ;
#148 = DIRECTION ( 'NONE',  ( 0.0000000000000000000, 1.000000000000000000, 0.0000000000000000000 ) ) ;
#149 = FACE_OUTER_BOUND ( 'NONE', #161, .T. ) ;
#150 = ADVANCED_FACE ( 'NONE', ( #183 ), #89, .F. ) ;
#151 = PRODUCT_DEFINITION_FORMATION_WITH_SPECIFIED_SOURCE ( 'ANY', '', #192, .NOT_KNOWN. ) ;
#152 = CARTESIAN_POINT ( 'NONE',  ( 3.631140592396858689E-13, 7.123858967643808858E-32, 104.0000000000000000 ) ) ;
#153 = VERTEX_POINT ( 'NONE', #18 ) ;
#154 = CARTESIAN_POINT ( 'NONE',  ( 3.631140592396858689E-13, -1.273632671113247592E-14, 104.0000000000000000 ) ) ;
#155 = AXIS2_PLACEMENT_3D ( 'NONE', #105, #46, #106 ) ;
#156 = CALENDAR_DATE ( 2021, 16, 11 ) ;
#157 = COORDINATED_UNIVERSAL_TIME_OFFSET ( 1, 0, .AHEAD. ) ;
#158 = DATE_AND_TIME ( #81, #198 ) ;
#159 = PERSON_AND_ORGANIZATION ( #31, #83 ) ;
#160 = ADVANCED_FACE ( 'NONE', ( #3 ), #50, .F. ) ;
#161 = EDGE_LOOP ( 'NONE', ( #84 ) ) ;
#162 = CLOSED_SHELL ( 'NONE', ( #122, #87, #135 ) ) ;
#163 = CARTESIAN_POINT ( 'NONE',  ( 3.613683185702642581E-13, -1.267509437117510519E-14, 103.4999999999999858 ) ) ;
#164 = FACE_OUTER_BOUND ( 'NONE', #41, .T. ) ;
#165 = DIRECTION ( 'NONE',  ( 4.275831445896959482E-31, 1.000000000000000000, 1.224646799147353454E-16 ) ) ;
#166 = DIRECTION ( 'NONE',  ( -3.491481338843133355E-15, 1.224646799147353454E-16, -1.000000000000000000 ) ) ;
#167 = AXIS2_PLACEMENT_3D ( 'NONE', #163, #86, #148 ) ;
#168 = APPLICATION_CONTEXT ( 'configuration controlled 3d designs of mechanical parts and assemblies' ) ;
#169 = CC_DESIGN_PERSON_AND_ORGANIZATION_ASSIGNMENT ( #124, #170, ( #192 ) ) ;
#170 = PERSON_AND_ORGANIZATION_ROLE ( 'design_owner' ) ;
#171 =( GEOMETRIC_REPRESENTATION_CONTEXT ( 3 ) GLOBAL_UNCERTAINTY_ASSIGNED_CONTEXT ( ( #51 ) ) GLOBAL_UNIT_ASSIGNED_CONTEXT ( ( #110, #140, #79 ) ) REPRESENTATION_CONTEXT ( 'NONE', 'WORKASPACE' ) );
#172 = CARTESIAN_POINT ( 'NONE',  ( 0.0000000000000000000, 0.0000000000000000000, 0.0000000000000000000 ) ) ;
#173 = COORDINATED_UNIVERSAL_TIME_OFFSET ( 1, 0, .AHEAD. ) ;
#174 = DATE_AND_TIME ( #40, #42 ) ;
#175 = AXIS2_PLACEMENT_3D ( 'NONE', #136, #1, #186 ) ;
#176 = APPLICATION_CONTEXT ( 'configuration controlled 3d designs of mechanical parts and assemblies' ) ;
#177 = DATE_AND_TIME ( #156, #191 ) ;
#178 = EDGE_LOOP ( 'NONE', ( #13 ) ) ;
#179 = CIRCLE ( 'NONE', #175, 9.999999999999992895 ) ;
#180 = DIRECTION ( 'NONE',  ( -3.491481338843133355E-15, 1.224646799147353454E-16, -1.000000000000000000 ) ) ;
#181 = AXIS2_PLACEMENT_3D ( 'NONE', #152, #107, #165 ) ;
#182 = CARTESIAN_POINT ( 'NONE',  ( -1.710328862951406993E-30, 5.999026098752630790E-32, -4.898576555239751833E-16 ) ) ;
#183 = FACE_OUTER_BOUND ( 'NONE', #12, .T. ) ;
#184 = FACE_OUTER_BOUND ( 'NONE', #60, .T. ) ;
#185 = APPROVAL_PERSON_ORGANIZATION ( #123, #4, #53 ) ;
#186 = DIRECTION ( 'NONE',  ( 0.0000000000000000000, 1.000000000000000000, 0.0000000000000000000 ) ) ;
#187 = PLANE ( 'NONE',  #102 ) ;
#188 = PERSON_AND_ORGANIZATION_ROLE ( 'design_supplier' ) ;
#189 = PRODUCT_RELATED_PRODUCT_CATEGORY ( 'detail', '', ( #192 ) ) ;
#190 = APPROVAL_DATE_TIME ( #177, #100 ) ;
#191 = LOCAL_TIME ( 15, 58, 57.00000000000000000, #157 ) ;
#192 = PRODUCT ( '45550', '45550', '', ( #56 ) ) ;
#193 = SECURITY_CLASSIFICATION_LEVEL ( 'unclassified' ) ;
#194 = APPROVAL_STATUS ( 'not_yet_approved' ) ;
#195 = AXIS2_PLACEMENT_3D ( 'NONE', #182, #74, #202 ) ;
#196 = CLOSED_SHELL ( 'NONE', ( #150, #63, #85, #160 ) ) ;
#197 = ORIENTED_EDGE ( 'NONE', *, *, #144, .F. ) ;
#198 = LOCAL_TIME ( 15, 58, 57.00000000000000000, #93 ) ;
#199 = ORIENTED_EDGE ( 'NONE', *, *, #28, .F. ) ;
#200 = EDGE_CURVE ( 'NONE', #77, #77, #179, .T. ) ;
#201 = EDGE_LOOP ( 'NONE', ( #199 ) ) ;
#202 = DIRECTION ( 'NONE',  ( -4.275831445896959482E-31, -1.000000000000000000, -1.224646799147353454E-16 ) ) ;
#203 = DIRECTION ( 'NONE',  ( 4.275831445896960358E-31, 1.000000000000000000, 1.224646799147353454E-16 ) ) ;
ENDSEC;
END-ISO-10303-21;
