ISO-10303-21;
HEADER;
FILE_DESCRIPTION (( 'STEP AP203' ),
    '1' );
FILE_NAME ('45549.step',
    '2021-11-16T14:58:56',
    ( '' ),
    ( '' ),
    'SwSTEP 2.0',
    'SolidWorks 2019',
    '' );
FILE_SCHEMA (( 'CONFIG_CONTROL_DESIGN' ));
ENDSEC;

DATA;
#1 = ORIENTED_EDGE ( 'NONE', *, *, #140, .T. ) ;
#2 = AXIS2_PLACEMENT_3D ( 'NONE', #133, #198, #195 ) ;
#3 = DIRECTION ( 'NONE',  ( -3.491481338843133355E-15, 1.224646799147353207E-16, -1.000000000000000000 ) ) ;
#4 = LOCAL_TIME ( 15, 58, 56.00000000000000000, #168 ) ;
#5 = DIRECTION ( 'NONE',  ( 0.0000000000000000000, 1.000000000000000000, 0.0000000000000000000 ) ) ;
#6 = DIRECTION ( 'NONE',  ( -3.491481338843133355E-15, 1.224646799147353207E-16, -1.000000000000000000 ) ) ;
#7 = DIRECTION ( 'NONE',  ( 3.491481338843133355E-15, -1.224646799147353207E-16, 1.000000000000000000 ) ) ;
#8 = CARTESIAN_POINT ( 'NONE',  ( -2.137916129069043528E-30, 7.498800337788472751E-32, -6.123235158912292318E-16 ) ) ;
#9 = ADVANCED_FACE ( 'NONE', ( #22, #145 ), #193, .T. ) ;
#10 = VERTEX_POINT ( 'NONE', #104 ) ;
#11 = CARTESIAN_POINT ( 'NONE',  ( 1.117274028429802674E-13, 7.999999999999991118, 32.00000000000000000 ) ) ;
#12 = APPLICATION_PROTOCOL_DEFINITION ( 'international standard', 'config_control_design', 1994, #160 ) ;
#13 = AXIS2_PLACEMENT_3D ( 'NONE', #132, #25, #146 ) ;
#14 = COORDINATED_UNIVERSAL_TIME_OFFSET ( 1, 0, .AHEAD. ) ;
#15 = CALENDAR_DATE ( 2021, 16, 11 ) ;
#16 = CALENDAR_DATE ( 2021, 16, 11 ) ;
#17 = EDGE_LOOP ( 'NONE', ( #143 ) ) ;
#18 = COORDINATED_UNIVERSAL_TIME_OFFSET ( 1, 0, .AHEAD. ) ;
#19 = DIRECTION ( 'NONE',  ( 3.491481338843133355E-15, -1.224646799147353207E-16, 1.000000000000000000 ) ) ;
#20 = UNCERTAINTY_MEASURE_WITH_UNIT (LENGTH_MEASURE( 1.000000000000000082E-05 ), #76, 'distance_accuracy_value', 'NONE');
#21 = APPLICATION_CONTEXT ( 'configuration controlled 3d designs of mechanical parts and assemblies' ) ;
#22 = FACE_OUTER_BOUND ( 'NONE', #156, .T. ) ;
#23 = ADVANCED_FACE ( 'NONE', ( #158 ), #191, .F. ) ;
#24 = CARTESIAN_POINT ( 'NONE',  ( 3.194705425041467083E-13, -1.120551821219828183E-14, 91.50000000000000000 ) ) ;
#25 = DIRECTION ( 'NONE',  ( 3.491481338843133355E-15, -1.224646799147353207E-16, 1.000000000000000000 ) ) ;
#26 = ADVANCED_FACE ( 'NONE', ( #70, #148 ), #73, .T. ) ;
#27 = FACE_OUTER_BOUND ( 'NONE', #130, .T. ) ;
#28 = CARTESIAN_POINT ( 'NONE',  ( 1.282749027648519504E-30, 7.999999999999991118, 3.673939234266523478E-16 ) ) ;
#29 = PERSON_AND_ORGANIZATION_ROLE ( 'creator' ) ;
#30 = PRODUCT_RELATED_PRODUCT_CATEGORY ( 'detail', '', ( #48 ) ) ;
#31 = DIRECTION ( 'NONE',  ( 1.000000000000000000, 0.0000000000000000000, 0.0000000000000000000 ) ) ;
#32 = EDGE_CURVE ( 'NONE', #57, #57, #190, .T. ) ;
#33 = CIRCLE ( 'NONE', #129, 7.999999999999991118 ) ;
#34 = APPROVAL_STATUS ( 'not_yet_approved' ) ;
#35 = PERSON_AND_ORGANIZATION ( #172, #68 ) ;
#36 = LOCAL_TIME ( 15, 58, 56.00000000000000000, #123 ) ;
#37 = ORIENTED_EDGE ( 'NONE', *, *, #115, .T. ) ;
#38 = CC_DESIGN_PERSON_AND_ORGANIZATION_ASSIGNMENT ( #128, #65, ( #48 ) ) ;
#39 = SECURITY_CLASSIFICATION ( '', '', #49 ) ;
#40 = ORIENTED_EDGE ( 'NONE', *, *, #59, .T. ) ;
#41 =( GEOMETRIC_REPRESENTATION_CONTEXT ( 3 ) GLOBAL_UNCERTAINTY_ASSIGNED_CONTEXT ( ( #20 ) ) GLOBAL_UNIT_ASSIGNED_CONTEXT ( ( #76, #121, #170 ) ) REPRESENTATION_CONTEXT ( 'NONE', 'WORKASPACE' ) );
#42 = DIRECTION ( 'NONE',  ( -3.491481338843133355E-15, 1.224646799147353207E-16, -1.000000000000000000 ) ) ;
#43 = PRODUCT_DEFINITION_FORMATION_WITH_SPECIFIED_SOURCE ( 'ANY', '', #48, .NOT_KNOWN. ) ;
#44 = DIRECTION ( 'NONE',  ( -3.491481338843133355E-15, 1.224646799147353207E-16, -1.000000000000000000 ) ) ;
#45 = VERTEX_POINT ( 'NONE', #116 ) ;
#46 = COORDINATED_UNIVERSAL_TIME_OFFSET ( 1, 0, .AHEAD. ) ;
#47 = APPLICATION_PROTOCOL_DEFINITION ( 'international standard', 'config_control_design', 1994, #21 ) ;
#48 = PRODUCT ( '45549', '45549', '', ( #137 ) ) ;
#49 = SECURITY_CLASSIFICATION_LEVEL ( 'unclassified' ) ;
#50 = EDGE_LOOP ( 'NONE', ( #37 ) ) ;
#51 = APPROVAL_DATE_TIME ( #188, #135 ) ;
#52 = AXIS2_PLACEMENT_3D ( 'NONE', #101, #6, #118 ) ;
#53 = MANIFOLD_SOLID_BREP ( 'Corps-Déplacer/Copier1[1]', #192 ) ;
#54 = CYLINDRICAL_SURFACE ( 'NONE', #162, 7.999999999999992895 ) ;
#55 = PLANE ( 'NONE',  #52 ) ;
#56 = AXIS2_PLACEMENT_3D ( 'NONE', #90, #176, #163 ) ;
#57 = VERTEX_POINT ( 'NONE', #119 ) ;
#58 = DIRECTION ( 'NONE',  ( -3.491481338843133355E-15, 1.224646799147353207E-16, -1.000000000000000000 ) ) ;
#59 = EDGE_CURVE ( 'NONE', #10, #10, #85, .T. ) ;
#60 = DIRECTION ( 'NONE',  ( 4.275831445896957731E-31, 1.000000000000000000, 1.224646799147353207E-16 ) ) ;
#61 = PERSON_AND_ORGANIZATION ( #172, #68 ) ;
#62 = APPROVAL_DATE_TIME ( #94, #201 ) ;
#63 = CC_DESIGN_DATE_AND_TIME_ASSIGNMENT ( #64, #105, ( #91 ) ) ;
#64 = DATE_AND_TIME ( #152, #36 ) ;
#65 = PERSON_AND_ORGANIZATION_ROLE ( 'design_owner' ) ;
#66 = ADVANCED_FACE ( 'NONE', ( #177 ), #87, .F. ) ;
#67 = EDGE_LOOP ( 'NONE', ( #161 ) ) ;
#68 = ORGANIZATION ( 'UNSPECIFIED', 'UNSPECIFIED', '' ) ;
#69 = DESIGN_CONTEXT ( 'detailed design', #21, 'design' ) ;
#70 = FACE_OUTER_BOUND ( 'NONE', #187, .T. ) ;
#71 = CC_DESIGN_APPROVAL ( #135, ( #39 ) ) ;
#72 = PLANE ( 'NONE',  #13 ) ;
#73 = CYLINDRICAL_SURFACE ( 'NONE', #78, 7.999999999999998224 ) ;
#74 = CARTESIAN_POINT ( 'NONE',  ( 1.117274028429802674E-13, -3.918869757271530263E-15, 32.00000000000000000 ) ) ;
#75 = VERTEX_POINT ( 'NONE', #28 ) ;
#76 =( LENGTH_UNIT ( ) NAMED_UNIT ( * ) SI_UNIT ( .MILLI., .METRE. ) );
#77 = CALENDAR_DATE ( 2021, 16, 11 ) ;
#78 = AXIS2_PLACEMENT_3D ( 'NONE', #164, #42, #150 ) ;
#79 = DATE_AND_TIME ( #15, #155 ) ;
#80 = APPROVAL_PERSON_ORGANIZATION ( #35, #135, #154 ) ;
#81 = CC_DESIGN_PERSON_AND_ORGANIZATION_ASSIGNMENT ( #166, #29, ( #91 ) ) ;
#82 = ADVANCED_FACE ( 'NONE', ( #180 ), #55, .F. ) ;
#83 = EDGE_LOOP ( 'NONE', ( #1 ) ) ;
#84 = CARTESIAN_POINT ( 'NONE',  ( -1.068958064534521764E-30, 3.749400168894236375E-32, -3.061617579456146159E-16 ) ) ;
#85 = CIRCLE ( 'NONE', #196, 8.000000000000001776 ) ;
#86 = ORIENTED_EDGE ( 'NONE', *, *, #140, .F. ) ;
#87 = PLANE ( 'NONE',  #107 ) ;
#88 = CARTESIAN_POINT ( 'NONE',  ( 1.117274028429802674E-13, 5.999039130647421673E-32, 32.00000000000000000 ) ) ;
#89 = DIRECTION ( 'NONE',  ( 4.275831445896957731E-31, 1.000000000000000000, 1.224646799147353454E-16 ) ) ;
#90 = CARTESIAN_POINT ( 'NONE',  ( 3.212162831735682182E-13, -1.126675055215564941E-14, 92.00000000000000000 ) ) ;
#91 = PRODUCT_DEFINITION ( 'UNKNOWN', '', #43, #69 ) ;
#92 = VERTEX_POINT ( 'NONE', #11 ) ;
#93 = PERSON_AND_ORGANIZATION_ROLE ( 'creator' ) ;
#94 = DATE_AND_TIME ( #77, #95 ) ;
#95 = LOCAL_TIME ( 15, 58, 56.00000000000000000, #46 ) ;
#96 = APPROVAL_ROLE ( '' ) ;
#97 = APPROVAL_STATUS ( 'not_yet_approved' ) ;
#98 = CLOSED_SHELL ( 'NONE', ( #23, #174, #113 ) ) ;
#99 = CIRCLE ( 'NONE', #56, 7.500000000000002665 ) ;
#100 = DIRECTION ( 'NONE',  ( 0.0000000000000000000, 1.000000000000000000, 0.0000000000000000000 ) ) ;
#101 = CARTESIAN_POINT ( 'NONE',  ( 3.212162831735682182E-13, 5.624099184981951250E-32, 92.00000000000000000 ) ) ;
#102 = CC_DESIGN_APPROVAL ( #201, ( #91 ) ) ;
#103 = FACE_OUTER_BOUND ( 'NONE', #67, .T. ) ;
#104 = CARTESIAN_POINT ( 'NONE',  ( 3.194705425041467083E-13, 7.999999999999991118, 91.50000000000000000 ) ) ;
#105 = DATE_TIME_ROLE ( 'creation_date' ) ;
#106 = PERSON_AND_ORGANIZATION ( #172, #68 ) ;
#107 = AXIS2_PLACEMENT_3D ( 'NONE', #88, #7, #149 ) ;
#108 = PERSON_AND_ORGANIZATION_ROLE ( 'classification_officer' ) ;
#109 = ORIENTED_EDGE ( 'NONE', *, *, #112, .F. ) ;
#110 = SHAPE_DEFINITION_REPRESENTATION ( #184, #157 ) ;
#111 = ORIENTED_EDGE ( 'NONE', *, *, #32, .T. ) ;
#112 = EDGE_CURVE ( 'NONE', #45, #45, #99, .T. ) ;
#113 = ADVANCED_FACE ( 'NONE', ( #103 ), #72, .T. ) ;
#114 = EDGE_LOOP ( 'NONE', ( #169 ) ) ;
#115 = EDGE_CURVE ( 'NONE', #75, #75, #33, .T. ) ;
#116 = CARTESIAN_POINT ( 'NONE',  ( 3.212162831735682182E-13, 7.499999999999991118, 92.00000000000000000 ) ) ;
#117 = CIRCLE ( 'NONE', #199, 7.999999999999994671 ) ;
#118 = DIRECTION ( 'NONE',  ( 4.275831445896958607E-31, 1.000000000000000000, 1.224646799147353207E-16 ) ) ;
#119 = CARTESIAN_POINT ( 'NONE',  ( 1.117274028429802674E-13, 7.999999999999991118, 32.00000000000000000 ) ) ;
#120 = DIRECTION ( 'NONE',  ( 0.0000000000000000000, 1.000000000000000000, 0.0000000000000000000 ) ) ;
#121 =( NAMED_UNIT ( * ) PLANE_ANGLE_UNIT ( ) SI_UNIT ( $, .RADIAN. ) );
#122 = DATE_TIME_ROLE ( 'classification_date' ) ;
#123 = COORDINATED_UNIVERSAL_TIME_OFFSET ( 1, 0, .AHEAD. ) ;
#124 = APPROVAL_PERSON_ORGANIZATION ( #106, #185, #96 ) ;
#125 = PERSON_AND_ORGANIZATION ( #172, #68 ) ;
#126 = CC_DESIGN_PERSON_AND_ORGANIZATION_ASSIGNMENT ( #125, #186, ( #43 ) ) ;
#127 = APPROVAL_DATE_TIME ( #79, #185 ) ;
#128 = PERSON_AND_ORGANIZATION ( #172, #68 ) ;
#129 = AXIS2_PLACEMENT_3D ( 'NONE', #8, #194, #89 ) ;
#130 = EDGE_LOOP ( 'NONE', ( #111 ) ) ;
#131 = CC_DESIGN_DATE_AND_TIME_ASSIGNMENT ( #200, #122, ( #39 ) ) ;
#132 = CARTESIAN_POINT ( 'NONE',  ( 1.117274028429802674E-13, 5.999039130647421673E-32, 32.00000000000000000 ) ) ;
#133 = CARTESIAN_POINT ( 'NONE',  ( 1.117274028429802674E-13, -3.918869757271530263E-15, 32.00000000000000000 ) ) ;
#134 = FACE_OUTER_BOUND ( 'NONE', #17, .T. ) ;
#135 = APPROVAL ( #97, 'UNSPECIFIED' ) ;
#136 = AXIS2_PLACEMENT_3D ( 'NONE', #183, #182, #31 ) ;
#137 = MECHANICAL_CONTEXT ( 'NONE', #160, 'mechanical' ) ;
#138 = AXIS2_PLACEMENT_3D ( 'NONE', #84, #19, #142 ) ;
#139 = PERSON_AND_ORGANIZATION ( #172, #68 ) ;
#140 = EDGE_CURVE ( 'NONE', #92, #92, #117, .T. ) ;
#141 = EDGE_LOOP ( 'NONE', ( #40 ) ) ;
#142 = DIRECTION ( 'NONE',  ( -4.275831445896958607E-31, -1.000000000000000000, -1.224646799147353207E-16 ) ) ;
#143 = ORIENTED_EDGE ( 'NONE', *, *, #115, .F. ) ;
#144 = CARTESIAN_POINT ( 'NONE',  ( 3.212162831735682182E-13, -1.126675055215564941E-14, 92.00000000000000000 ) ) ;
#145 = FACE_BOUND ( 'NONE', #114, .T. ) ;
#146 = DIRECTION ( 'NONE',  ( -4.275831445896958607E-31, -1.000000000000000000, -1.224646799147353207E-16 ) ) ;
#147 = LOCAL_TIME ( 15, 58, 56.00000000000000000, #18 ) ;
#148 = FACE_OUTER_BOUND ( 'NONE', #141, .T. ) ;
#149 = DIRECTION ( 'NONE',  ( -4.275831445896958607E-31, -1.000000000000000000, -1.224646799147353207E-16 ) ) ;
#150 = DIRECTION ( 'NONE',  ( 4.275831445896958607E-31, 1.000000000000000000, 1.224646799147353207E-16 ) ) ;
#151 = CALENDAR_DATE ( 2021, 16, 11 ) ;
#152 = CALENDAR_DATE ( 2021, 16, 11 ) ;
#153 = APPROVAL_STATUS ( 'not_yet_approved' ) ;
#154 = APPROVAL_ROLE ( '' ) ;
#155 = LOCAL_TIME ( 15, 58, 56.00000000000000000, #14 ) ;
#156 = EDGE_LOOP ( 'NONE', ( #159 ) ) ;
#157 = ADVANCED_BREP_SHAPE_REPRESENTATION ( '45549', ( #53, #181, #136 ), #41 ) ;
#158 = FACE_OUTER_BOUND ( 'NONE', #50, .T. ) ;
#159 = ORIENTED_EDGE ( 'NONE', *, *, #59, .F. ) ;
#160 = APPLICATION_CONTEXT ( 'configuration controlled 3d designs of mechanical parts and assemblies' ) ;
#161 = ORIENTED_EDGE ( 'NONE', *, *, #32, .F. ) ;
#162 = AXIS2_PLACEMENT_3D ( 'NONE', #197, #44, #60 ) ;
#163 = DIRECTION ( 'NONE',  ( 0.0000000000000000000, 1.000000000000000000, 0.0000000000000000000 ) ) ;
#164 = CARTESIAN_POINT ( 'NONE',  ( 0.0000000000000000000, 0.0000000000000000000, 0.0000000000000000000 ) ) ;
#165 = CC_DESIGN_PERSON_AND_ORGANIZATION_ASSIGNMENT ( #61, #108, ( #39 ) ) ;
#166 = PERSON_AND_ORGANIZATION ( #172, #68 ) ;
#167 = PERSON_AND_ORGANIZATION ( #172, #68 ) ;
#168 = COORDINATED_UNIVERSAL_TIME_OFFSET ( 1, 0, .AHEAD. ) ;
#169 = ORIENTED_EDGE ( 'NONE', *, *, #112, .T. ) ;
#170 =( NAMED_UNIT ( * ) SI_UNIT ( $, .STERADIAN. ) SOLID_ANGLE_UNIT ( ) );
#171 = CC_DESIGN_PERSON_AND_ORGANIZATION_ASSIGNMENT ( #139, #93, ( #43 ) ) ;
#172 = PERSON ( 'UNSPECIFIED', 'UNSPECIFIED', 'UNSPECIFIED', ('UNSPECIFIED'), ('UNSPECIFIED'), ('UNSPECIFIED') ) ;
#173 = AXIS2_PLACEMENT_3D ( 'NONE', #144, #3, #5 ) ;
#174 = ADVANCED_FACE ( 'NONE', ( #134, #27 ), #54, .T. ) ;
#175 = APPROVAL_PERSON_ORGANIZATION ( #167, #201, #189 ) ;
#176 = DIRECTION ( 'NONE',  ( -3.491481338843133355E-15, 1.224646799147353207E-16, -1.000000000000000000 ) ) ;
#177 = FACE_OUTER_BOUND ( 'NONE', #83, .T. ) ;
#178 = CC_DESIGN_SECURITY_CLASSIFICATION ( #39, ( #43 ) ) ;
#179 = DIRECTION ( 'NONE',  ( -3.491481338843133355E-15, 1.224646799147353207E-16, -1.000000000000000000 ) ) ;
#180 = FACE_OUTER_BOUND ( 'NONE', #203, .T. ) ;
#181 = MANIFOLD_SOLID_BREP ( 'Corps-Déplacer/Copier1[2]', #98 ) ;
#182 = DIRECTION ( 'NONE',  ( 0.0000000000000000000, 0.0000000000000000000, 1.000000000000000000 ) ) ;
#183 = CARTESIAN_POINT ( 'NONE',  ( 0.0000000000000000000, 0.0000000000000000000, 0.0000000000000000000 ) ) ;
#184 = PRODUCT_DEFINITION_SHAPE ( 'NONE', 'NONE',  #91 ) ;
#185 = APPROVAL ( #34, 'UNSPECIFIED' ) ;
#186 = PERSON_AND_ORGANIZATION_ROLE ( 'design_supplier' ) ;
#187 = EDGE_LOOP ( 'NONE', ( #86 ) ) ;
#188 = DATE_AND_TIME ( #16, #147 ) ;
#189 = APPROVAL_ROLE ( '' ) ;
#190 = CIRCLE ( 'NONE', #2, 7.999999999999994671 ) ;
#191 = PLANE ( 'NONE',  #138 ) ;
#192 = CLOSED_SHELL ( 'NONE', ( #66, #26, #9, #82 ) ) ;
#193 = CONICAL_SURFACE ( 'NONE', #173, 7.500000000000002665, 0.7853981633974473908 ) ;
#194 = DIRECTION ( 'NONE',  ( -3.491481338843133355E-15, 1.224646799147353207E-16, -1.000000000000000000 ) ) ;
#195 = DIRECTION ( 'NONE',  ( 0.0000000000000000000, 1.000000000000000000, 0.0000000000000000000 ) ) ;
#196 = AXIS2_PLACEMENT_3D ( 'NONE', #24, #58, #120 ) ;
#197 = CARTESIAN_POINT ( 'NONE',  ( 0.0000000000000000000, 0.0000000000000000000, 0.0000000000000000000 ) ) ;
#198 = DIRECTION ( 'NONE',  ( -3.491481338843133355E-15, 1.224646799147353207E-16, -1.000000000000000000 ) ) ;
#199 = AXIS2_PLACEMENT_3D ( 'NONE', #74, #179, #100 ) ;
#200 = DATE_AND_TIME ( #151, #4 ) ;
#201 = APPROVAL ( #153, 'UNSPECIFIED' ) ;
#202 = CC_DESIGN_APPROVAL ( #185, ( #43 ) ) ;
#203 = EDGE_LOOP ( 'NONE', ( #109 ) ) ;
ENDSEC;
END-ISO-10303-21;
