ISO-10303-21;
HEADER;
FILE_DESCRIPTION (( 'STEP AP203' ),
    '1' );
FILE_NAME ('45548.step',
    '2021-11-16T14:58:56',
    ( '' ),
    ( '' ),
    'SwSTEP 2.0',
    'SolidWorks 2019',
    '' );
FILE_SCHEMA (( 'CONFIG_CONTROL_DESIGN' ));
ENDSEC;

DATA;
#1 = ORIENTED_EDGE ( 'NONE', *, *, #76, .F. ) ;
#2 = EDGE_LOOP ( 'NONE', ( #63 ) ) ;
#3 = EDGE_CURVE ( 'NONE', #151, #151, #135, .T. ) ;
#4 = AXIS2_PLACEMENT_3D ( 'NONE', #46, #128, #114 ) ;
#5 = DIRECTION ( 'NONE',  ( -3.491481338843133355E-15, 1.224646799147353207E-16, -1.000000000000000000 ) ) ;
#6 = APPROVAL_DATE_TIME ( #145, #31 ) ;
#7 = DIRECTION ( 'NONE',  ( -3.491481338843133355E-15, 1.224646799147353207E-16, -1.000000000000000000 ) ) ;
#8 = PERSON_AND_ORGANIZATION_ROLE ( 'creator' ) ;
#9 = CIRCLE ( 'NONE', #125, 4.999999999999994671 ) ;
#10 = COORDINATED_UNIVERSAL_TIME_OFFSET ( 1, 0, .AHEAD. ) ;
#11 = VERTEX_POINT ( 'NONE', #73 ) ;
#12 = CALENDAR_DATE ( 2021, 16, 11 ) ;
#13 = CC_DESIGN_DATE_AND_TIME_ASSIGNMENT ( #43, #156, ( #122 ) ) ;
#14 = FACE_OUTER_BOUND ( 'NONE', #34, .T. ) ;
#15 = DIRECTION ( 'NONE',  ( -3.491481338843133355E-15, 1.224646799147353207E-16, -1.000000000000000000 ) ) ;
#16 = APPROVAL ( #142, 'UNSPECIFIED' ) ;
#17 = ORIENTED_EDGE ( 'NONE', *, *, #183, .F. ) ;
#18 = FACE_OUTER_BOUND ( 'NONE', #62, .T. ) ;
#19 = PERSON_AND_ORGANIZATION_ROLE ( 'design_owner' ) ;
#20 = EDGE_LOOP ( 'NONE', ( #1 ) ) ;
#21 = DIRECTION ( 'NONE',  ( -3.491481338843133355E-15, 1.224646799147353207E-16, -1.000000000000000000 ) ) ;
#22 = DIRECTION ( 'NONE',  ( -3.491481338843133355E-15, 1.224646799147353207E-16, -1.000000000000000000 ) ) ;
#23 = ADVANCED_FACE ( 'NONE', ( #18 ), #190, .T. ) ;
#24 = DIRECTION ( 'NONE',  ( 0.0000000000000000000, 0.0000000000000000000, 1.000000000000000000 ) ) ;
#25 = AXIS2_PLACEMENT_3D ( 'NONE', #61, #184, #42 ) ;
#26 = APPROVAL_PERSON_ORGANIZATION ( #98, #16, #138 ) ;
#27 = DATE_AND_TIME ( #199, #173 ) ;
#28 = AXIS2_PLACEMENT_3D ( 'NONE', #167, #5, #68 ) ;
#29 = ADVANCED_FACE ( 'NONE', ( #84, #66 ), #35, .T. ) ;
#30 = COORDINATED_UNIVERSAL_TIME_OFFSET ( 1, 0, .AHEAD. ) ;
#31 = APPROVAL ( #134, 'UNSPECIFIED' ) ;
#32 = EDGE_LOOP ( 'NONE', ( #67 ) ) ;
#33 = PERSON_AND_ORGANIZATION ( #180, #100 ) ;
#34 = EDGE_LOOP ( 'NONE', ( #201 ) ) ;
#35 = CONICAL_SURFACE ( 'NONE', #188, 4.500000000000000888, 0.7853981633974344012 ) ;
#36 = CARTESIAN_POINT ( 'NONE',  ( 7.681258945454893382E-14, -2.694222958124176809E-15, 22.00000000000000000 ) ) ;
#37 = CALENDAR_DATE ( 2021, 16, 11 ) ;
#38 = DIRECTION ( 'NONE',  ( -4.275831445896958607E-31, -1.000000000000000000, -1.224646799147353207E-16 ) ) ;
#39 = CYLINDRICAL_SURFACE ( 'NONE', #28, 4.999999999999993783 ) ;
#40 = ORIENTED_EDGE ( 'NONE', *, *, #47, .T. ) ;
#41 = ADVANCED_FACE ( 'NONE', ( #171 ), #131, .F. ) ;
#42 = DIRECTION ( 'NONE',  ( 0.0000000000000000000, 1.000000000000000000, 0.0000000000000000000 ) ) ;
#43 = DATE_AND_TIME ( #37, #113 ) ;
#44 = ADVANCED_FACE ( 'NONE', ( #14, #81 ), #163, .T. ) ;
#45 = CC_DESIGN_APPROVAL ( #31, ( #122 ) ) ;
#46 = CARTESIAN_POINT ( 'NONE',  ( 7.681258945454893382E-14, 3.749399456654636904E-32, 22.00000000000000000 ) ) ;
#47 = EDGE_CURVE ( 'NONE', #137, #137, #9, .T. ) ;
#48 = CARTESIAN_POINT ( 'NONE',  ( -8.551702076470480934E-31, 2.999533309458101739E-32, -2.449304821232125005E-16 ) ) ;
#49 = PERSON_AND_ORGANIZATION_ROLE ( 'creator' ) ;
#50 = AXIS2_PLACEMENT_3D ( 'NONE', #87, #71, #38 ) ;
#51 = FACE_OUTER_BOUND ( 'NONE', #110, .T. ) ;
#52 =( NAMED_UNIT ( * ) SI_UNIT ( $, .STERADIAN. ) SOLID_ANGLE_UNIT ( ) );
#53 = DIRECTION ( 'NONE',  ( 4.275831445896958607E-31, 1.000000000000000000, 1.224646799147353207E-16 ) ) ;
#54 = FACE_OUTER_BOUND ( 'NONE', #97, .T. ) ;
#55 = PRODUCT_DEFINITION_SHAPE ( 'NONE', 'NONE',  #122 ) ;
#56 = DATE_AND_TIME ( #12, #166 ) ;
#57 = PRODUCT_DEFINITION_FORMATION_WITH_SPECIFIED_SOURCE ( 'ANY', '', #90, .NOT_KNOWN. ) ;
#58 = ADVANCED_BREP_SHAPE_REPRESENTATION ( '45548', ( #70, #141, #182 ), #94 ) ;
#59 = APPROVAL_DATE_TIME ( #56, #195 ) ;
#60 = PERSON_AND_ORGANIZATION ( #180, #100 ) ;
#61 = CARTESIAN_POINT ( 'NONE',  ( 7.681258945454893382E-14, -2.694222958124176809E-15, 22.00000000000000000 ) ) ;
#62 = EDGE_LOOP ( 'NONE', ( #146 ) ) ;
#63 = ORIENTED_EDGE ( 'NONE', *, *, #76, .T. ) ;
#64 = CC_DESIGN_DATE_AND_TIME_ASSIGNMENT ( #108, #121, ( #200 ) ) ;
#65 = AXIS2_PLACEMENT_3D ( 'NONE', #85, #22, #103 ) ;
#66 = FACE_BOUND ( 'NONE', #32, .T. ) ;
#67 = ORIENTED_EDGE ( 'NONE', *, *, #183, .T. ) ;
#68 = DIRECTION ( 'NONE',  ( 4.275831445896959482E-31, 1.000000000000000000, 1.224646799147353207E-16 ) ) ;
#69 = CARTESIAN_POINT ( 'NONE',  ( 2.513866563967056016E-13, 3.374459510989167028E-32, 72.00000000000000000 ) ) ;
#70 = MANIFOLD_SOLID_BREP ( 'Corps-Déplacer/Copier1[1]', #172 ) ;
#71 = DIRECTION ( 'NONE',  ( 3.491481338843133355E-15, -1.224646799147353207E-16, 1.000000000000000000 ) ) ;
#72 = CIRCLE ( 'NONE', #150, 5.000000000000000888 ) ;
#73 = CARTESIAN_POINT ( 'NONE',  ( 2.496409157272839907E-13, 4.999999999999992006, 71.49999999999998579 ) ) ;
#74 = CARTESIAN_POINT ( 'NONE',  ( 7.681258945454893382E-14, 4.999999999999992006, 22.00000000000000000 ) ) ;
#75 = COORDINATED_UNIVERSAL_TIME_OFFSET ( 1, 0, .AHEAD. ) ;
#76 = EDGE_CURVE ( 'NONE', #11, #11, #72, .T. ) ;
#77 = CALENDAR_DATE ( 2021, 16, 11 ) ;
#78 = SHAPE_DEFINITION_REPRESENTATION ( #55, #58 ) ;
#79 = APPROVAL_PERSON_ORGANIZATION ( #198, #195, #126 ) ;
#80 = CC_DESIGN_PERSON_AND_ORGANIZATION_ASSIGNMENT ( #177, #49, ( #122 ) ) ;
#81 = FACE_OUTER_BOUND ( 'NONE', #2, .T. ) ;
#82 = CIRCLE ( 'NONE', #65, 4.500000000000000888 ) ;
#83 = EDGE_LOOP ( 'NONE', ( #40 ) ) ;
#84 = FACE_OUTER_BOUND ( 'NONE', #20, .T. ) ;
#85 = CARTESIAN_POINT ( 'NONE',  ( 2.513866563967056016E-13, -8.817456953860941711E-15, 72.00000000000000000 ) ) ;
#86 = VERTEX_POINT ( 'NONE', #136 ) ;
#87 = CARTESIAN_POINT ( 'NONE',  ( 7.681258945454893382E-14, 3.749399456654636904E-32, 22.00000000000000000 ) ) ;
#88 = CC_DESIGN_APPROVAL ( #16, ( #57 ) ) ;
#89 = DIRECTION ( 'NONE',  ( 1.000000000000000000, 0.0000000000000000000, 0.0000000000000000000 ) ) ;
#90 = PRODUCT ( '45548', '45548', '', ( #107 ) ) ;
#91 = APPLICATION_CONTEXT ( 'configuration controlled 3d designs of mechanical parts and assemblies' ) ;
#92 = APPROVAL_ROLE ( '' ) ;
#93 = DIRECTION ( 'NONE',  ( 0.0000000000000000000, 1.000000000000000000, 0.0000000000000000000 ) ) ;
#94 =( GEOMETRIC_REPRESENTATION_CONTEXT ( 3 ) GLOBAL_UNCERTAINTY_ASSIGNED_CONTEXT ( ( #147 ) ) GLOBAL_UNIT_ASSIGNED_CONTEXT ( ( #148, #192, #52 ) ) REPRESENTATION_CONTEXT ( 'NONE', 'WORKASPACE' ) );
#95 = APPROVAL_STATUS ( 'not_yet_approved' ) ;
#96 = ADVANCED_FACE ( 'NONE', ( #155 ), #165, .F. ) ;
#97 = EDGE_LOOP ( 'NONE', ( #129 ) ) ;
#98 = PERSON_AND_ORGANIZATION ( #180, #100 ) ;
#99 = DIRECTION ( 'NONE',  ( 3.491481338843133355E-15, -1.224646799147353207E-16, 1.000000000000000000 ) ) ;
#100 = ORGANIZATION ( 'UNSPECIFIED', 'UNSPECIFIED', '' ) ;
#101 = APPLICATION_PROTOCOL_DEFINITION ( 'international standard', 'config_control_design', 1994, #91 ) ;
#102 = AXIS2_PLACEMENT_3D ( 'NONE', #185, #115, #175 ) ;
#103 = DIRECTION ( 'NONE',  ( 0.0000000000000000000, 1.000000000000000000, 0.0000000000000000000 ) ) ;
#104 = CARTESIAN_POINT ( 'NONE',  ( 0.0000000000000000000, 0.0000000000000000000, 0.0000000000000000000 ) ) ;
#105 = AXIS2_PLACEMENT_3D ( 'NONE', #69, #21, #53 ) ;
#106 = CC_DESIGN_PERSON_AND_ORGANIZATION_ASSIGNMENT ( #60, #181, ( #200 ) ) ;
#107 = MECHANICAL_CONTEXT ( 'NONE', #168, 'mechanical' ) ;
#108 = DATE_AND_TIME ( #77, #139 ) ;
#109 = ADVANCED_FACE ( 'NONE', ( #54, #51 ), #39, .T. ) ;
#110 = EDGE_LOOP ( 'NONE', ( #186 ) ) ;
#111 = PERSON_AND_ORGANIZATION ( #180, #100 ) ;
#112 = DIRECTION ( 'NONE',  ( 0.0000000000000000000, 1.000000000000000000, 0.0000000000000000000 ) ) ;
#113 = LOCAL_TIME ( 15, 58, 56.00000000000000000, #75 ) ;
#114 = DIRECTION ( 'NONE',  ( -4.275831445896958607E-31, -1.000000000000000000, -1.224646799147353207E-16 ) ) ;
#115 = DIRECTION ( 'NONE',  ( -3.491481338843133355E-15, 1.224646799147353207E-16, -1.000000000000000000 ) ) ;
#116 = CC_DESIGN_APPROVAL ( #195, ( #200 ) ) ;
#117 = PLANE ( 'NONE',  #50 ) ;
#118 = DIRECTION ( 'NONE',  ( 4.275831445896958607E-31, 1.000000000000000000, 1.224646799147353207E-16 ) ) ;
#119 = VERTEX_POINT ( 'NONE', #178 ) ;
#120 = COORDINATED_UNIVERSAL_TIME_OFFSET ( 1, 0, .AHEAD. ) ;
#121 = DATE_TIME_ROLE ( 'classification_date' ) ;
#122 = PRODUCT_DEFINITION ( 'UNKNOWN', '', #57, #176 ) ;
#123 = APPROVAL_PERSON_ORGANIZATION ( #196, #31, #92 ) ;
#124 = EDGE_CURVE ( 'NONE', #119, #119, #159, .T. ) ;
#125 = AXIS2_PLACEMENT_3D ( 'NONE', #36, #143, #112 ) ;
#126 = APPROVAL_ROLE ( '' ) ;
#127 = DIRECTION ( 'NONE',  ( 0.0000000000000000000, 1.000000000000000000, 0.0000000000000000000 ) ) ;
#128 = DIRECTION ( 'NONE',  ( 3.491481338843133355E-15, -1.224646799147353207E-16, 1.000000000000000000 ) ) ;
#129 = ORIENTED_EDGE ( 'NONE', *, *, #124, .F. ) ;
#130 = AXIS2_PLACEMENT_3D ( 'NONE', #179, #133, #118 ) ;
#131 = PLANE ( 'NONE',  #164 ) ;
#132 = PERSON_AND_ORGANIZATION ( #180, #100 ) ;
#133 = DIRECTION ( 'NONE',  ( -3.491481338843133355E-15, 1.224646799147353207E-16, -1.000000000000000000 ) ) ;
#134 = APPROVAL_STATUS ( 'not_yet_approved' ) ;
#135 = CIRCLE ( 'NONE', #25, 4.999999999999994671 ) ;
#136 = CARTESIAN_POINT ( 'NONE',  ( 2.513866563967056016E-13, 4.499999999999992006, 72.00000000000000000 ) ) ;
#137 = VERTEX_POINT ( 'NONE', #194 ) ;
#138 = APPROVAL_ROLE ( '' ) ;
#139 = LOCAL_TIME ( 15, 58, 56.00000000000000000, #30 ) ;
#140 = CC_DESIGN_PERSON_AND_ORGANIZATION_ASSIGNMENT ( #33, #169, ( #57 ) ) ;
#141 = MANIFOLD_SOLID_BREP ( 'Corps-Déplacer/Copier1[2]', #197 ) ;
#142 = APPROVAL_STATUS ( 'not_yet_approved' ) ;
#143 = DIRECTION ( 'NONE',  ( -3.491481338843133355E-15, 1.224646799147353207E-16, -1.000000000000000000 ) ) ;
#144 = ORIENTED_EDGE ( 'NONE', *, *, #124, .T. ) ;
#145 = DATE_AND_TIME ( #193, #189 ) ;
#146 = ORIENTED_EDGE ( 'NONE', *, *, #3, .F. ) ;
#147 = UNCERTAINTY_MEASURE_WITH_UNIT (LENGTH_MEASURE( 1.000000000000000082E-05 ), #148, 'distance_accuracy_value', 'NONE');
#148 =( LENGTH_UNIT ( ) NAMED_UNIT ( * ) SI_UNIT ( .MILLI., .METRE. ) );
#149 = CC_DESIGN_SECURITY_CLASSIFICATION ( #200, ( #57 ) ) ;
#150 = AXIS2_PLACEMENT_3D ( 'NONE', #203, #7, #93 ) ;
#151 = VERTEX_POINT ( 'NONE', #74 ) ;
#152 = APPLICATION_PROTOCOL_DEFINITION ( 'international standard', 'config_control_design', 1994, #168 ) ;
#153 = COORDINATED_UNIVERSAL_TIME_OFFSET ( 1, 0, .AHEAD. ) ;
#154 = APPROVAL_DATE_TIME ( #27, #16 ) ;
#155 = FACE_OUTER_BOUND ( 'NONE', #170, .T. ) ;
#156 = DATE_TIME_ROLE ( 'creation_date' ) ;
#157 = CARTESIAN_POINT ( 'NONE',  ( 2.513866563967056016E-13, -8.817456953860941711E-15, 72.00000000000000000 ) ) ;
#158 = ADVANCED_FACE ( 'NONE', ( #162 ), #117, .F. ) ;
#159 = CIRCLE ( 'NONE', #130, 4.999999999999992006 ) ;
#160 = EDGE_LOOP ( 'NONE', ( #144 ) ) ;
#161 = PRODUCT_RELATED_PRODUCT_CATEGORY ( 'detail', '', ( #90 ) ) ;
#162 = FACE_OUTER_BOUND ( 'NONE', #83, .T. ) ;
#163 = CYLINDRICAL_SURFACE ( 'NONE', #102, 4.999999999999997335 ) ;
#164 = AXIS2_PLACEMENT_3D ( 'NONE', #48, #99, #191 ) ;
#165 = PLANE ( 'NONE',  #105 ) ;
#166 = LOCAL_TIME ( 15, 58, 56.00000000000000000, #120 ) ;
#167 = CARTESIAN_POINT ( 'NONE',  ( 0.0000000000000000000, 0.0000000000000000000, 0.0000000000000000000 ) ) ;
#168 = APPLICATION_CONTEXT ( 'configuration controlled 3d designs of mechanical parts and assemblies' ) ;
#169 = PERSON_AND_ORGANIZATION_ROLE ( 'design_supplier' ) ;
#170 = EDGE_LOOP ( 'NONE', ( #17 ) ) ;
#171 = FACE_OUTER_BOUND ( 'NONE', #160, .T. ) ;
#172 = CLOSED_SHELL ( 'NONE', ( #158, #44, #29, #96 ) ) ;
#173 = LOCAL_TIME ( 15, 58, 56.00000000000000000, #10 ) ;
#174 = CC_DESIGN_PERSON_AND_ORGANIZATION_ASSIGNMENT ( #132, #19, ( #90 ) ) ;
#175 = DIRECTION ( 'NONE',  ( 4.275831445896959482E-31, 1.000000000000000000, 1.224646799147353207E-16 ) ) ;
#176 = DESIGN_CONTEXT ( 'detailed design', #91, 'design' ) ;
#177 = PERSON_AND_ORGANIZATION ( #180, #100 ) ;
#178 = CARTESIAN_POINT ( 'NONE',  ( 4.275753076543797008E-31, 4.999999999999992006, 1.224624353272506412E-16 ) ) ;
#179 = CARTESIAN_POINT ( 'NONE',  ( -1.710340415294096187E-30, 5.999066618916203478E-32, -4.898609642464250010E-16 ) ) ;
#180 = PERSON ( 'UNSPECIFIED', 'UNSPECIFIED', 'UNSPECIFIED', ('UNSPECIFIED'), ('UNSPECIFIED'), ('UNSPECIFIED') ) ;
#181 = PERSON_AND_ORGANIZATION_ROLE ( 'classification_officer' ) ;
#182 = AXIS2_PLACEMENT_3D ( 'NONE', #104, #24, #89 ) ;
#183 = EDGE_CURVE ( 'NONE', #86, #86, #82, .T. ) ;
#184 = DIRECTION ( 'NONE',  ( -3.491481338843133355E-15, 1.224646799147353207E-16, -1.000000000000000000 ) ) ;
#185 = CARTESIAN_POINT ( 'NONE',  ( 0.0000000000000000000, 0.0000000000000000000, 0.0000000000000000000 ) ) ;
#186 = ORIENTED_EDGE ( 'NONE', *, *, #3, .T. ) ;
#187 = CC_DESIGN_PERSON_AND_ORGANIZATION_ASSIGNMENT ( #111, #8, ( #57 ) ) ;
#188 = AXIS2_PLACEMENT_3D ( 'NONE', #157, #15, #127 ) ;
#189 = LOCAL_TIME ( 15, 58, 56.00000000000000000, #153 ) ;
#190 = PLANE ( 'NONE',  #4 ) ;
#191 = DIRECTION ( 'NONE',  ( -4.275831445896958607E-31, -1.000000000000000000, -1.224646799147353207E-16 ) ) ;
#192 =( NAMED_UNIT ( * ) PLANE_ANGLE_UNIT ( ) SI_UNIT ( $, .RADIAN. ) );
#193 = CALENDAR_DATE ( 2021, 16, 11 ) ;
#194 = CARTESIAN_POINT ( 'NONE',  ( 7.681258945454893382E-14, 4.999999999999992006, 22.00000000000000000 ) ) ;
#195 = APPROVAL ( #95, 'UNSPECIFIED' ) ;
#196 = PERSON_AND_ORGANIZATION ( #180, #100 ) ;
#197 = CLOSED_SHELL ( 'NONE', ( #41, #109, #23 ) ) ;
#198 = PERSON_AND_ORGANIZATION ( #180, #100 ) ;
#199 = CALENDAR_DATE ( 2021, 16, 11 ) ;
#200 = SECURITY_CLASSIFICATION ( '', '', #202 ) ;
#201 = ORIENTED_EDGE ( 'NONE', *, *, #47, .F. ) ;
#202 = SECURITY_CLASSIFICATION_LEVEL ( 'unclassified' ) ;
#203 = CARTESIAN_POINT ( 'NONE',  ( 2.496409157272839907E-13, -8.756224613903572559E-15, 71.49999999999998579 ) ) ;
ENDSEC;
END-ISO-10303-21;
