ISO-10303-21;
HEADER;
FILE_DESCRIPTION (( 'STEP AP203' ),
    '1' );
FILE_NAME ('45547.step',
    '2021-11-16T14:58:55',
    ( '' ),
    ( '' ),
    'SwSTEP 2.0',
    'SolidWorks 2019',
    '' );
FILE_SCHEMA (( 'CONFIG_CONTROL_DESIGN' ));
ENDSEC;

DATA;
#1 = AXIS2_PLACEMENT_3D ( 'NONE', #93, #180, #80 ) ;
#2 =( LENGTH_UNIT ( ) NAMED_UNIT ( * ) SI_UNIT ( .MILLI., .METRE. ) );
#3 = DIRECTION ( 'NONE',  ( 0.0000000000000000000, 1.000000000000000000, 0.0000000000000000000 ) ) ;
#4 = CARTESIAN_POINT ( 'NONE',  ( 2.182175836776958284E-13, -7.654042494670957804E-15, 62.50000000000000000 ) ) ;
#5 = CALENDAR_DATE ( 2021, 16, 11 ) ;
#6 = PERSON_AND_ORGANIZATION ( #20, #16 ) ;
#7 = LOCAL_TIME ( 15, 58, 55.00000000000000000, #37 ) ;
#8 = EDGE_CURVE ( 'NONE', #129, #129, #166, .T. ) ;
#9 = ORIENTED_EDGE ( 'NONE', *, *, #152, .T. ) ;
#10 = ADVANCED_FACE ( 'NONE', ( #79, #156 ), #154, .T. ) ;
#11 = UNCERTAINTY_MEASURE_WITH_UNIT (LENGTH_MEASURE( 1.000000000000000082E-05 ), #2, 'distance_accuracy_value', 'NONE');
#12 = CARTESIAN_POINT ( 'NONE',  ( 0.0000000000000000000, 0.0000000000000000000, 0.0000000000000000000 ) ) ;
#13 = DIRECTION ( 'NONE',  ( 4.275831445896957731E-31, 1.000000000000000000, 1.224646799147353207E-16 ) ) ;
#14 = DIRECTION ( 'NONE',  ( 0.0000000000000000000, 1.000000000000000000, 0.0000000000000000000 ) ) ;
#15 = ADVANCED_FACE ( 'NONE', ( #193 ), #127, .F. ) ;
#16 = ORGANIZATION ( 'UNSPECIFIED', 'UNSPECIFIED', '' ) ;
#17 = LOCAL_TIME ( 15, 58, 55.00000000000000000, #105 ) ;
#18 = DIRECTION ( 'NONE',  ( -4.275831445896958607E-31, -1.000000000000000000, -1.224646799147353207E-16 ) ) ;
#19 = DIRECTION ( 'NONE',  ( -3.491481338843133355E-15, 1.224646799147353207E-16, -1.000000000000000000 ) ) ;
#20 = PERSON ( 'UNSPECIFIED', 'UNSPECIFIED', 'UNSPECIFIED', ('UNSPECIFIED'), ('UNSPECIFIED'), ('UNSPECIFIED') ) ;
#21 = LOCAL_TIME ( 15, 58, 55.00000000000000000, #24 ) ;
#22 = DIRECTION ( 'NONE',  ( -3.491481338843133355E-15, 1.224646799147353207E-16, -1.000000000000000000 ) ) ;
#23 = ADVANCED_FACE ( 'NONE', ( #178 ), #36, .F. ) ;
#24 = COORDINATED_UNIVERSAL_TIME_OFFSET ( 1, 0, .AHEAD. ) ;
#25 = APPROVAL_STATUS ( 'not_yet_approved' ) ;
#26 = EDGE_CURVE ( 'NONE', #197, #197, #143, .T. ) ;
#27 = CALENDAR_DATE ( 2021, 16, 11 ) ;
#28 = CARTESIAN_POINT ( 'NONE',  ( 0.0000000000000000000, 0.0000000000000000000, 0.0000000000000000000 ) ) ;
#29 = PERSON_AND_ORGANIZATION ( #20, #16 ) ;
#30 = AXIS2_PLACEMENT_3D ( 'NONE', #130, #162, #82 ) ;
#31 = ORIENTED_EDGE ( 'NONE', *, *, #26, .F. ) ;
#32 = DIRECTION ( 'NONE',  ( -3.491481338843133355E-15, 1.224646799147353207E-16, -1.000000000000000000 ) ) ;
#33 = CARTESIAN_POINT ( 'NONE',  ( -1.282757270704400326E-30, 4.499306836254345870E-32, -3.673962843316896556E-16 ) ) ;
#34 = CYLINDRICAL_SURFACE ( 'NONE', #141, 3.999999999999993339 ) ;
#35 = VERTEX_POINT ( 'NONE', #163 ) ;
#36 = PLANE ( 'NONE',  #30 ) ;
#37 = COORDINATED_UNIVERSAL_TIME_OFFSET ( 1, 0, .AHEAD. ) ;
#38 = PRODUCT_DEFINITION_SHAPE ( 'NONE', 'NONE',  #95 ) ;
#39 = APPROVAL_STATUS ( 'not_yet_approved' ) ;
#40 = CIRCLE ( 'NONE', #76, 3.500000000000000000 ) ;
#41 = CALENDAR_DATE ( 2021, 16, 11 ) ;
#42 = DATE_AND_TIME ( #41, #81 ) ;
#43 = CC_DESIGN_PERSON_AND_ORGANIZATION_ASSIGNMENT ( #187, #138, ( #72 ) ) ;
#44 = APPROVAL ( #25, 'UNSPECIFIED' ) ;
#45 = LOCAL_TIME ( 15, 58, 55.00000000000000000, #185 ) ;
#46 = DIRECTION ( 'NONE',  ( -4.275831445896958607E-31, -1.000000000000000000, -1.224646799147353207E-16 ) ) ;
#47 = CARTESIAN_POINT ( 'NONE',  ( 6.633814543801952113E-14, 2.999519565323707552E-32, 19.00000000000000000 ) ) ;
#48 = DIRECTION ( 'NONE',  ( -3.491481338843133355E-15, 1.224646799147353207E-16, -1.000000000000000000 ) ) ;
#49 = CARTESIAN_POINT ( 'NONE',  ( 6.633814543801952113E-14, 3.999999999999992450, 19.00000000000000000 ) ) ;
#50 = DIRECTION ( 'NONE',  ( -3.491481338843133355E-15, 1.224646799147353207E-16, -1.000000000000000000 ) ) ;
#51 = APPROVAL_STATUS ( 'not_yet_approved' ) ;
#52 = AXIS2_PLACEMENT_3D ( 'NONE', #98, #147, #3 ) ;
#53 = APPLICATION_PROTOCOL_DEFINITION ( 'international standard', 'config_control_design', 1994, #116 ) ;
#54 = PERSON_AND_ORGANIZATION ( #20, #16 ) ;
#55 = ADVANCED_BREP_SHAPE_REPRESENTATION ( '45547', ( #203, #58, #107 ), #123 ) ;
#56 = PERSON_AND_ORGANIZATION_ROLE ( 'design_supplier' ) ;
#57 = SECURITY_CLASSIFICATION_LEVEL ( 'unclassified' ) ;
#58 = MANIFOLD_SOLID_BREP ( 'Corps-Déplacer/Copier1[2]', #186 ) ;
#59 = EDGE_LOOP ( 'NONE', ( #177 ) ) ;
#60 = APPROVAL ( #39, 'UNSPECIFIED' ) ;
#61 = DESIGN_CONTEXT ( 'detailed design', #184, 'design' ) ;
#62 = ORIENTED_EDGE ( 'NONE', *, *, #136, .F. ) ;
#63 = ORIENTED_EDGE ( 'NONE', *, *, #190, .F. ) ;
#64 = AXIS2_PLACEMENT_3D ( 'NONE', #33, #92, #158 ) ;
#65 = FACE_OUTER_BOUND ( 'NONE', #110, .T. ) ;
#66 =( NAMED_UNIT ( * ) PLANE_ANGLE_UNIT ( ) SI_UNIT ( $, .RADIAN. ) );
#67 = DIRECTION ( 'NONE',  ( 4.275831445896958607E-31, 1.000000000000000000, 1.224646799147353207E-16 ) ) ;
#68 = DIRECTION ( 'NONE',  ( 3.491481338843133355E-15, -1.224646799147353207E-16, 1.000000000000000000 ) ) ;
#69 = CC_DESIGN_PERSON_AND_ORGANIZATION_ASSIGNMENT ( #104, #56, ( #108 ) ) ;
#70 = DIRECTION ( 'NONE',  ( -3.491481338843133355E-15, 1.224646799147353207E-16, -1.000000000000000000 ) ) ;
#71 = DATE_TIME_ROLE ( 'creation_date' ) ;
#72 = PRODUCT ( '45547', '45547', '', ( #101 ) ) ;
#73 = CC_DESIGN_SECURITY_CLASSIFICATION ( #168, ( #108 ) ) ;
#74 = PERSON_AND_ORGANIZATION ( #20, #16 ) ;
#75 = CC_DESIGN_PERSON_AND_ORGANIZATION_ASSIGNMENT ( #74, #202, ( #108 ) ) ;
#76 = AXIS2_PLACEMENT_3D ( 'NONE', #83, #22, #164 ) ;
#77 = EDGE_LOOP ( 'NONE', ( #9 ) ) ;
#78 = EDGE_LOOP ( 'NONE', ( #153 ) ) ;
#79 = FACE_OUTER_BOUND ( 'NONE', #124, .T. ) ;
#80 = DIRECTION ( 'NONE',  ( 0.0000000000000000000, 1.000000000000000000, 0.0000000000000000000 ) ) ;
#81 = LOCAL_TIME ( 15, 58, 55.00000000000000000, #139 ) ;
#82 = DIRECTION ( 'NONE',  ( -4.275831445896958607E-31, -1.000000000000000000, -1.224646799147353207E-16 ) ) ;
#83 = CARTESIAN_POINT ( 'NONE',  ( 2.199633243471174140E-13, -7.715274834628325378E-15, 63.00000000000000000 ) ) ;
#84 = CARTESIAN_POINT ( 'NONE',  ( 0.0000000000000000000, 0.0000000000000000000, 0.0000000000000000000 ) ) ;
#85 = FACE_OUTER_BOUND ( 'NONE', #175, .T. ) ;
#86 = DATE_TIME_ROLE ( 'classification_date' ) ;
#87 = ADVANCED_FACE ( 'NONE', ( #94 ), #194, .F. ) ;
#88 = DATE_AND_TIME ( #27, #17 ) ;
#89 = APPROVAL_DATE_TIME ( #42, #60 ) ;
#90 = CIRCLE ( 'NONE', #1, 3.999999999999994671 ) ;
#91 = EDGE_LOOP ( 'NONE', ( #142 ) ) ;
#92 = DIRECTION ( 'NONE',  ( -3.491481338843133355E-15, 1.224646799147353207E-16, -1.000000000000000000 ) ) ;
#93 = CARTESIAN_POINT ( 'NONE',  ( 6.633814543801952113E-14, -2.326828918379970970E-15, 19.00000000000000000 ) ) ;
#94 = FACE_OUTER_BOUND ( 'NONE', #78, .T. ) ;
#95 = PRODUCT_DEFINITION ( 'UNKNOWN', '', #108, #61 ) ;
#96 = DIRECTION ( 'NONE',  ( 4.275831445896958607E-31, 1.000000000000000000, 1.224646799147353207E-16 ) ) ;
#97 = DIRECTION ( 'NONE',  ( 0.0000000000000000000, 1.000000000000000000, 0.0000000000000000000 ) ) ;
#98 = CARTESIAN_POINT ( 'NONE',  ( 6.633814543801952113E-14, -2.326828918379970970E-15, 19.00000000000000000 ) ) ;
#99 = PERSON_AND_ORGANIZATION_ROLE ( 'classification_officer' ) ;
#100 = CALENDAR_DATE ( 2021, 16, 11 ) ;
#101 = MECHANICAL_CONTEXT ( 'NONE', #116, 'mechanical' ) ;
#102 = CIRCLE ( 'NONE', #128, 4.000000000000000000 ) ;
#103 = CC_DESIGN_APPROVAL ( #157, ( #168 ) ) ;
#104 = PERSON_AND_ORGANIZATION ( #20, #16 ) ;
#105 = COORDINATED_UNIVERSAL_TIME_OFFSET ( 1, 0, .AHEAD. ) ;
#106 = AXIS2_PLACEMENT_3D ( 'NONE', #47, #159, #18 ) ;
#107 = AXIS2_PLACEMENT_3D ( 'NONE', #28, #201, #122 ) ;
#108 = PRODUCT_DEFINITION_FORMATION_WITH_SPECIFIED_SOURCE ( 'ANY', '', #72, .NOT_KNOWN. ) ;
#109 = CC_DESIGN_PERSON_AND_ORGANIZATION_ASSIGNMENT ( #29, #99, ( #168 ) ) ;
#110 = EDGE_LOOP ( 'NONE', ( #62 ) ) ;
#111 = EDGE_LOOP ( 'NONE', ( #192 ) ) ;
#112 = VERTEX_POINT ( 'NONE', #161 ) ;
#113 = CARTESIAN_POINT ( 'NONE',  ( 2.199633243471174140E-13, -7.715274834628325378E-15, 63.00000000000000000 ) ) ;
#114 = APPROVAL_PERSON_ORGANIZATION ( #6, #44, #120 ) ;
#115 = CARTESIAN_POINT ( 'NONE',  ( 2.199633243471174140E-13, 3.499999999999992450, 63.00000000000000000 ) ) ;
#116 = APPLICATION_CONTEXT ( 'configuration controlled 3d designs of mechanical parts and assemblies' ) ;
#117 = VERTEX_POINT ( 'NONE', #115 ) ;
#118 = ADVANCED_FACE ( 'NONE', ( #195, #85 ), #34, .T. ) ;
#119 = AXIS2_PLACEMENT_3D ( 'NONE', #12, #32, #13 ) ;
#120 = APPROVAL_ROLE ( '' ) ;
#121 = CALENDAR_DATE ( 2021, 16, 11 ) ;
#122 = DIRECTION ( 'NONE',  ( 1.000000000000000000, 0.0000000000000000000, 0.0000000000000000000 ) ) ;
#123 =( GEOMETRIC_REPRESENTATION_CONTEXT ( 3 ) GLOBAL_UNCERTAINTY_ASSIGNED_CONTEXT ( ( #11 ) ) GLOBAL_UNIT_ASSIGNED_CONTEXT ( ( #2, #66, #179 ) ) REPRESENTATION_CONTEXT ( 'NONE', 'WORKASPACE' ) );
#124 = EDGE_LOOP ( 'NONE', ( #63 ) ) ;
#125 = CONICAL_SURFACE ( 'NONE', #182, 3.500000000000000000, 0.7853981633974479459 ) ;
#126 = PLANE ( 'NONE',  #172 ) ;
#127 = PLANE ( 'NONE',  #189 ) ;
#128 = AXIS2_PLACEMENT_3D ( 'NONE', #4, #50, #14 ) ;
#129 = VERTEX_POINT ( 'NONE', #198 ) ;
#130 = CARTESIAN_POINT ( 'NONE',  ( -6.413786353522001631E-31, 2.249653418127172935E-32, -1.836981421658448278E-16 ) ) ;
#131 = PERSON_AND_ORGANIZATION ( #20, #16 ) ;
#132 = PRODUCT_RELATED_PRODUCT_CATEGORY ( 'detail', '', ( #72 ) ) ;
#133 = APPROVAL_DATE_TIME ( #165, #157 ) ;
#134 = APPROVAL_PERSON_ORGANIZATION ( #131, #60, #137 ) ;
#135 = APPROVAL_PERSON_ORGANIZATION ( #169, #157, #183 ) ;
#136 = EDGE_CURVE ( 'NONE', #112, #112, #102, .T. ) ;
#137 = APPROVAL_ROLE ( '' ) ;
#138 = PERSON_AND_ORGANIZATION_ROLE ( 'design_owner' ) ;
#139 = COORDINATED_UNIVERSAL_TIME_OFFSET ( 1, 0, .AHEAD. ) ;
#140 = CLOSED_SHELL ( 'NONE', ( #87, #10, #174, #15 ) ) ;
#141 = AXIS2_PLACEMENT_3D ( 'NONE', #84, #19, #67 ) ;
#142 = ORIENTED_EDGE ( 'NONE', *, *, #8, .F. ) ;
#143 = CIRCLE ( 'NONE', #52, 3.999999999999994671 ) ;
#144 = FACE_BOUND ( 'NONE', #77, .T. ) ;
#145 = CARTESIAN_POINT ( 'NONE',  ( 6.633814543801952113E-14, 2.999519565323707552E-32, 19.00000000000000000 ) ) ;
#146 = CARTESIAN_POINT ( 'NONE',  ( 2.199633243471174140E-13, 2.624579619658239319E-32, 63.00000000000000000 ) ) ;
#147 = DIRECTION ( 'NONE',  ( -3.491481338843133355E-15, 1.224646799147353207E-16, -1.000000000000000000 ) ) ;
#148 = SHAPE_DEFINITION_REPRESENTATION ( #38, #55 ) ;
#149 = APPLICATION_PROTOCOL_DEFINITION ( 'international standard', 'config_control_design', 1994, #184 ) ;
#150 = CC_DESIGN_DATE_AND_TIME_ASSIGNMENT ( #199, #86, ( #168 ) ) ;
#151 = APPROVAL_DATE_TIME ( #88, #44 ) ;
#152 = EDGE_CURVE ( 'NONE', #117, #117, #40, .T. ) ;
#153 = ORIENTED_EDGE ( 'NONE', *, *, #190, .T. ) ;
#154 = CYLINDRICAL_SURFACE ( 'NONE', #119, 3.999999999999997335 ) ;
#155 = CC_DESIGN_DATE_AND_TIME_ASSIGNMENT ( #167, #71, ( #95 ) ) ;
#156 = FACE_OUTER_BOUND ( 'NONE', #111, .T. ) ;
#157 = APPROVAL ( #51, 'UNSPECIFIED' ) ;
#158 = DIRECTION ( 'NONE',  ( 4.275831445896958607E-31, 1.000000000000000000, 1.224646799147352961E-16 ) ) ;
#159 = DIRECTION ( 'NONE',  ( 3.491481338843133355E-15, -1.224646799147353207E-16, 1.000000000000000000 ) ) ;
#160 = CC_DESIGN_APPROVAL ( #44, ( #108 ) ) ;
#161 = CARTESIAN_POINT ( 'NONE',  ( 2.182175836776958284E-13, 3.999999999999992450, 62.50000000000000000 ) ) ;
#162 = DIRECTION ( 'NONE',  ( 3.491481338843133355E-15, -1.224646799147353207E-16, 1.000000000000000000 ) ) ;
#163 = CARTESIAN_POINT ( 'NONE',  ( 6.633814543801952113E-14, 3.999999999999992450, 19.00000000000000000 ) ) ;
#164 = DIRECTION ( 'NONE',  ( 0.0000000000000000000, 1.000000000000000000, 0.0000000000000000000 ) ) ;
#165 = DATE_AND_TIME ( #100, #7 ) ;
#166 = CIRCLE ( 'NONE', #64, 3.999999999999992450 ) ;
#167 = DATE_AND_TIME ( #121, #21 ) ;
#168 = SECURITY_CLASSIFICATION ( '', '', #57 ) ;
#169 = PERSON_AND_ORGANIZATION ( #20, #16 ) ;
#170 = PERSON_AND_ORGANIZATION_ROLE ( 'creator' ) ;
#171 = ORIENTED_EDGE ( 'NONE', *, *, #26, .T. ) ;
#172 = AXIS2_PLACEMENT_3D ( 'NONE', #145, #68, #46 ) ;
#173 = EDGE_LOOP ( 'NONE', ( #176 ) ) ;
#174 = ADVANCED_FACE ( 'NONE', ( #65, #144 ), #125, .T. ) ;
#175 = EDGE_LOOP ( 'NONE', ( #171 ) ) ;
#176 = ORIENTED_EDGE ( 'NONE', *, *, #152, .F. ) ;
#177 = ORIENTED_EDGE ( 'NONE', *, *, #8, .T. ) ;
#178 = FACE_OUTER_BOUND ( 'NONE', #59, .T. ) ;
#179 =( NAMED_UNIT ( * ) SI_UNIT ( $, .STERADIAN. ) SOLID_ANGLE_UNIT ( ) );
#180 = DIRECTION ( 'NONE',  ( -3.491481338843133355E-15, 1.224646799147353207E-16, -1.000000000000000000 ) ) ;
#181 = FACE_OUTER_BOUND ( 'NONE', #191, .T. ) ;
#182 = AXIS2_PLACEMENT_3D ( 'NONE', #113, #70, #97 ) ;
#183 = APPROVAL_ROLE ( '' ) ;
#184 = APPLICATION_CONTEXT ( 'configuration controlled 3d designs of mechanical parts and assemblies' ) ;
#185 = COORDINATED_UNIVERSAL_TIME_OFFSET ( 1, 0, .AHEAD. ) ;
#186 = CLOSED_SHELL ( 'NONE', ( #23, #118, #196 ) ) ;
#187 = PERSON_AND_ORGANIZATION ( #20, #16 ) ;
#188 = CC_DESIGN_PERSON_AND_ORGANIZATION_ASSIGNMENT ( #54, #170, ( #95 ) ) ;
#189 = AXIS2_PLACEMENT_3D ( 'NONE', #146, #48, #96 ) ;
#190 = EDGE_CURVE ( 'NONE', #35, #35, #90, .T. ) ;
#191 = EDGE_LOOP ( 'NONE', ( #31 ) ) ;
#192 = ORIENTED_EDGE ( 'NONE', *, *, #136, .T. ) ;
#193 = FACE_OUTER_BOUND ( 'NONE', #173, .T. ) ;
#194 = PLANE ( 'NONE',  #106 ) ;
#195 = FACE_OUTER_BOUND ( 'NONE', #91, .T. ) ;
#196 = ADVANCED_FACE ( 'NONE', ( #181 ), #126, .T. ) ;
#197 = VERTEX_POINT ( 'NONE', #49 ) ;
#198 = CARTESIAN_POINT ( 'NONE',  ( 4.275753076543798760E-31, 3.999999999999992450, 1.224624353272506412E-16 ) ) ;
#199 = DATE_AND_TIME ( #5, #45 ) ;
#200 = CC_DESIGN_APPROVAL ( #60, ( #95 ) ) ;
#201 = DIRECTION ( 'NONE',  ( 0.0000000000000000000, 0.0000000000000000000, 1.000000000000000000 ) ) ;
#202 = PERSON_AND_ORGANIZATION_ROLE ( 'creator' ) ;
#203 = MANIFOLD_SOLID_BREP ( 'Corps-Déplacer/Copier1[1]', #140 ) ;
ENDSEC;
END-ISO-10303-21;
