ISO-10303-21;
HEADER;
FILE_DESCRIPTION (( 'STEP AP203' ),
    '1' );
FILE_NAME ('45537.step',
    '2021-10-07T13:48:10',
    ( '' ),
    ( '' ),
    'SwSTEP 2.0',
    'SolidWorks 2019',
    '' );
FILE_SCHEMA (( 'CONFIG_CONTROL_DESIGN' ));
ENDSEC;

DATA;
#1 = CLOSED_SHELL ( 'NONE', ( #167, #16, #27, #221, #11 ) ) ;
#2 = VERTEX_POINT ( 'NONE', #138 ) ;
#3 = FACE_OUTER_BOUND ( 'NONE', #72, .T. ) ;
#4 = CARTESIAN_POINT ( 'NONE',  ( 1.825167465565006337E-15, -6.401825694284472120E-17, 0.5227487385539791864 ) ) ;
#5 = CC_DESIGN_PERSON_AND_ORGANIZATION_ASSIGNMENT ( #118, #28, ( #124 ) ) ;
#6 = DIRECTION ( 'NONE',  ( 0.0000000000000000000, 1.000000000000000000, 0.0000000000000000000 ) ) ;
#7 = AXIS2_PLACEMENT_3D ( 'NONE', #193, #21, #190 ) ;
#8 = LOCAL_TIME ( 15, 48, 10.00000000000000000, #115 ) ;
#9 = FACE_OUTER_BOUND ( 'NONE', #73, .T. ) ;
#10 = DIRECTION ( 'NONE',  ( 1.000000000000000000, 0.0000000000000000000, 0.0000000000000000000 ) ) ;
#11 = ADVANCED_FACE ( 'NONE', ( #202 ), #15, .F. ) ;
#12 = DATE_AND_TIME ( #100, #29 ) ;
#13 = APPROVAL_ROLE ( '' ) ;
#14 = PERSON_AND_ORGANIZATION ( #20, #121 ) ;
#15 = PLANE ( 'NONE',  #191 ) ;
#16 = ADVANCED_FACE ( 'NONE', ( #185, #105 ), #117, .T. ) ;
#17 = ORIENTED_EDGE ( 'NONE', *, *, #36, .F. ) ;
#18 = AXIS2_PLACEMENT_3D ( 'NONE', #26, #62, #111 ) ;
#19 = APPROVAL_PERSON_ORGANIZATION ( #183, #195, #13 ) ;
#20 = PERSON ( 'UNSPECIFIED', 'UNSPECIFIED', 'UNSPECIFIED', ('UNSPECIFIED'), ('UNSPECIFIED'), ('UNSPECIFIED') ) ;
#21 = DIRECTION ( 'NONE',  ( -3.491481338843133355E-15, 1.224646799147353207E-16, -1.000000000000000000 ) ) ;
#22 = CARTESIAN_POINT ( 'NONE',  ( 1.825167465565006337E-15, -6.401825694284472120E-17, 0.5227487385539791864 ) ) ;
#23 = DIRECTION ( 'NONE',  ( -4.275831445896958607E-31, -1.000000000000000000, -1.224646799147353207E-16 ) ) ;
#24 = CC_DESIGN_PERSON_AND_ORGANIZATION_ASSIGNMENT ( #14, #114, ( #204 ) ) ;
#25 = FACE_OUTER_BOUND ( 'NONE', #220, .T. ) ;
#26 = CARTESIAN_POINT ( 'NONE',  ( 0.0000000000000000000, 0.0000000000000000000, 0.0000000000000000000 ) ) ;
#27 = ADVANCED_FACE ( 'NONE', ( #25, #112 ), #128, .T. ) ;
#28 = PERSON_AND_ORGANIZATION_ROLE ( 'design_supplier' ) ;
#29 = LOCAL_TIME ( 15, 48, 10.00000000000000000, #31 ) ;
#30 = CALENDAR_DATE ( 2021, 7, 10 ) ;
#31 = COORDINATED_UNIVERSAL_TIME_OFFSET ( 1, 0, .AHEAD. ) ;
#32 = CONICAL_SURFACE ( 'NONE', #213, 0.8699999999999935563, 1.029744258676649871 ) ;
#33 = DIRECTION ( 'NONE',  ( -3.491481338843133355E-15, 1.224646799147353207E-16, -1.000000000000000000 ) ) ;
#34 = PRODUCT_RELATED_PRODUCT_CATEGORY ( 'detail', '', ( #54 ) ) ;
#35 = ORIENTED_EDGE ( 'NONE', *, *, #140, .T. ) ;
#36 = EDGE_CURVE ( 'NONE', #41, #41, #199, .T. ) ;
#37 = DIRECTION ( 'NONE',  ( 4.427425159510919504E-31, 1.000000000000000000, 1.246209393661508493E-16 ) ) ;
#38 = DIRECTION ( 'NONE',  ( 0.0000000000000000000, 1.000000000000000000, 0.0000000000000000000 ) ) ;
#39 = DIRECTION ( 'NONE',  ( 3.491481338843133355E-15, -1.224646799147353207E-16, 1.000000000000000000 ) ) ;
#40 = CARTESIAN_POINT ( 'NONE',  ( 4.189777606611760026E-14, 6.523955054579031056E-33, 12.00000000000000000 ) ) ;
#41 = VERTEX_POINT ( 'NONE', #113 ) ;
#42 = APPROVAL_DATE_TIME ( #179, #129 ) ;
#43 = AXIS2_PLACEMENT_3D ( 'NONE', #40, #60, #23 ) ;
#44 = CC_DESIGN_APPROVAL ( #195, ( #55 ) ) ;
#45 = APPROVAL_ROLE ( '' ) ;
#46 = PERSON_AND_ORGANIZATION_ROLE ( 'classification_officer' ) ;
#47 =( LENGTH_UNIT ( ) NAMED_UNIT ( * ) SI_UNIT ( .MILLI., .METRE. ) );
#48 = AXIS2_PLACEMENT_3D ( 'NONE', #58, #76, #177 ) ;
#49 = DATE_AND_TIME ( #180, #8 ) ;
#50 = CC_DESIGN_DATE_AND_TIME_ASSIGNMENT ( #12, #198, ( #55 ) ) ;
#51 = ORIENTED_EDGE ( 'NONE', *, *, #173, .T. ) ;
#52 = AXIS2_PLACEMENT_3D ( 'NONE', #206, #158, #38 ) ;
#53 = ORIENTED_EDGE ( 'NONE', *, *, #106, .T. ) ;
#54 = PRODUCT ( '45537', '45537', '', ( #131 ) ) ;
#55 = SECURITY_CLASSIFICATION ( '', '', #132 ) ;
#56 = ORIENTED_EDGE ( 'NONE', *, *, #36, .T. ) ;
#57 = DIRECTION ( 'NONE',  ( 4.275831445896957731E-31, 1.000000000000000000, 1.224646799147353207E-16 ) ) ;
#58 = CARTESIAN_POINT ( 'NONE',  ( 4.189777606611760026E-14, -1.469576158976823947E-15, 12.00000000000000000 ) ) ;
#59 = AXIS2_PLACEMENT_3D ( 'NONE', #141, #159, #78 ) ;
#60 = DIRECTION ( 'NONE',  ( 3.491481338843133355E-15, -1.224646799147353207E-16, 1.000000000000000000 ) ) ;
#61 = DIRECTION ( 'NONE',  ( -3.491481338843133355E-15, 1.224646799147353207E-16, -1.000000000000000000 ) ) ;
#62 = DIRECTION ( 'NONE',  ( -3.491481338843133355E-15, 1.224646799147353207E-16, -1.000000000000000000 ) ) ;
#63 = CC_DESIGN_APPROVAL ( #125, ( #124 ) ) ;
#64 = CC_DESIGN_PERSON_AND_ORGANIZATION_ASSIGNMENT ( #184, #116, ( #54 ) ) ;
#65 = DATE_TIME_ROLE ( 'creation_date' ) ;
#66 = COORDINATED_UNIVERSAL_TIME_OFFSET ( 1, 0, .AHEAD. ) ;
#67 = APPLICATION_PROTOCOL_DEFINITION ( 'international standard', 'config_control_design', 1994, #75 ) ;
#68 = ADVANCED_FACE ( 'NONE', ( #171 ), #178, .T. ) ;
#69 = CARTESIAN_POINT ( 'NONE',  ( 1.326762908760390423E-13, 5.999039130647368167E-33, 38.00000000000000000 ) ) ;
#70 = EDGE_LOOP ( 'NONE', ( #136 ) ) ;
#71 = APPROVAL_PERSON_ORGANIZATION ( #165, #129, #45 ) ;
#72 = EDGE_LOOP ( 'NONE', ( #35 ) ) ;
#73 = EDGE_LOOP ( 'NONE', ( #169 ) ) ;
#74 = CLOSED_SHELL ( 'NONE', ( #84, #80, #68 ) ) ;
#75 = APPLICATION_CONTEXT ( 'configuration controlled 3d designs of mechanical parts and assemblies' ) ;
#76 = DIRECTION ( 'NONE',  ( -3.491481338843133355E-15, 1.224646799147353207E-16, -1.000000000000000000 ) ) ;
#77 = CARTESIAN_POINT ( 'NONE',  ( 4.189777606611760026E-14, 0.8699999999999948885, 12.00000000000000000 ) ) ;
#78 = DIRECTION ( 'NONE',  ( -4.275831445896958607E-31, -1.000000000000000000, -1.224646799147353207E-16 ) ) ;
#79 = DIRECTION ( 'NONE',  ( 3.491481338843133355E-15, -1.224646799147353207E-16, 1.000000000000000000 ) ) ;
#80 = ADVANCED_FACE ( 'NONE', ( #9, #157 ), #209, .T. ) ;
#81 = DIRECTION ( 'NONE',  ( 0.0000000000000000000, 1.000000000000000000, 0.0000000000000000000 ) ) ;
#82 = APPROVAL_ROLE ( '' ) ;
#83 = PERSON_AND_ORGANIZATION ( #20, #121 ) ;
#84 = ADVANCED_FACE ( 'NONE', ( #176 ), #32, .T. ) ;
#85 = CARTESIAN_POINT ( 'NONE',  ( 1.319779946082704535E-13, 0.9999999999999965583, 37.79999999999999716 ) ) ;
#86 = PERSON_AND_ORGANIZATION ( #20, #121 ) ;
#87 = APPROVAL_STATUS ( 'not_yet_approved' ) ;
#88 = EDGE_LOOP ( 'NONE', ( #108 ) ) ;
#89 = AXIS2_PLACEMENT_3D ( 'NONE', #192, #79, #160 ) ;
#90 = CC_DESIGN_PERSON_AND_ORGANIZATION_ASSIGNMENT ( #83, #146, ( #124 ) ) ;
#91 = EDGE_LOOP ( 'NONE', ( #53 ) ) ;
#92 = CC_DESIGN_DATE_AND_TIME_ASSIGNMENT ( #216, #65, ( #204 ) ) ;
#93 = CARTESIAN_POINT ( 'NONE',  ( 4.189777606611760026E-14, 0.8699999999999948885, 12.00000000000000000 ) ) ;
#94 = CC_DESIGN_APPROVAL ( #129, ( #204 ) ) ;
#95 = DIRECTION ( 'NONE',  ( -3.491481338843133355E-15, 1.224646799147353207E-16, -1.000000000000000000 ) ) ;
#96 = DIRECTION ( 'NONE',  ( -4.427425159510919504E-31, -1.000000000000000000, -1.246209393661508493E-16 ) ) ;
#97 = APPROVAL_PERSON_ORGANIZATION ( #86, #125, #82 ) ;
#98 = VERTEX_POINT ( 'NONE', #93 ) ;
#99 = CALENDAR_DATE ( 2021, 7, 10 ) ;
#100 = CALENDAR_DATE ( 2021, 7, 10 ) ;
#101 = AXIS2_PLACEMENT_3D ( 'NONE', #4, #174, #37 ) ;
#102 = APPROVAL_STATUS ( 'not_yet_approved' ) ;
#103 =( NAMED_UNIT ( * ) SI_UNIT ( $, .STERADIAN. ) SOLID_ANGLE_UNIT ( ) );
#104 = APPROVAL_DATE_TIME ( #149, #195 ) ;
#105 = FACE_OUTER_BOUND ( 'NONE', #201, .T. ) ;
#106 = EDGE_CURVE ( 'NONE', #98, #98, #120, .T. ) ;
#107 = MANIFOLD_SOLID_BREP ( 'Corps-Déplacer/Copier1[1]', #1 ) ;
#108 = ORIENTED_EDGE ( 'NONE', *, *, #173, .F. ) ;
#109 = FACE_BOUND ( 'NONE', #137, .T. ) ;
#110 = CARTESIAN_POINT ( 'NONE',  ( 0.0000000000000000000, 0.0000000000000000000, 0.0000000000000000000 ) ) ;
#111 = DIRECTION ( 'NONE',  ( 4.275831445896958607E-31, 1.000000000000000000, 1.224646799147353207E-16 ) ) ;
#112 = FACE_OUTER_BOUND ( 'NONE', #200, .T. ) ;
#113 = CARTESIAN_POINT ( 'NONE',  ( 4.268394106554976401E-14, 0.9999999999999954481, 12.22516660498396135 ) ) ;
#114 = PERSON_AND_ORGANIZATION_ROLE ( 'creator' ) ;
#115 = COORDINATED_UNIVERSAL_TIME_OFFSET ( 1, 0, .AHEAD. ) ;
#116 = PERSON_AND_ORGANIZATION_ROLE ( 'design_owner' ) ;
#117 = CONICAL_SURFACE ( 'NONE', #89, 0.9999999999999970024, 0.5235987755982871583 ) ;
#118 = PERSON_AND_ORGANIZATION ( #20, #121 ) ;
#119 = SHAPE_DEFINITION_REPRESENTATION ( #203, #186 ) ;
#120 = CIRCLE ( 'NONE', #52, 0.8699999999999964428 ) ;
#121 = ORGANIZATION ( 'UNSPECIFIED', 'UNSPECIFIED', '' ) ;
#122 = CARTESIAN_POINT ( 'NONE',  ( 1.326762908760390423E-13, 0.7999999999999963807, 38.00000000000000000 ) ) ;
#123 = DIRECTION ( 'NONE',  ( 0.0000000000000000000, 1.000000000000000000, 0.0000000000000000000 ) ) ;
#124 = PRODUCT_DEFINITION_FORMATION_WITH_SPECIFIED_SOURCE ( 'ANY', '', #54, .NOT_KNOWN. ) ;
#125 = APPROVAL ( #163, 'UNSPECIFIED' ) ;
#126 = DIRECTION ( 'NONE',  ( -3.491481338843133355E-15, 1.224646799147353207E-16, -1.000000000000000000 ) ) ;
#127 = FACE_OUTER_BOUND ( 'NONE', #70, .T. ) ;
#128 = CYLINDRICAL_SURFACE ( 'NONE', #130, 0.9999999999999991118 ) ;
#129 = APPROVAL ( #87, 'UNSPECIFIED' ) ;
#130 = AXIS2_PLACEMENT_3D ( 'NONE', #110, #95, #57 ) ;
#131 = MECHANICAL_CONTEXT ( 'NONE', #211, 'mechanical' ) ;
#132 = SECURITY_CLASSIFICATION_LEVEL ( 'unclassified' ) ;
#133 = DIRECTION ( 'NONE',  ( 4.275831445896958607E-31, 1.000000000000000000, 1.224646799147353207E-16 ) ) ;
#134 = CIRCLE ( 'NONE', #162, 0.8000000000000010436 ) ;
#135 = EDGE_LOOP ( 'NONE', ( #219 ) ) ;
#136 = ORIENTED_EDGE ( 'NONE', *, *, #214, .F. ) ;
#137 = EDGE_LOOP ( 'NONE', ( #51 ) ) ;
#138 = CARTESIAN_POINT ( 'NONE',  ( 1.825167465565006731E-15, 0.8699999999999934452, 0.5227487385539792974 ) ) ;
#139 = DIRECTION ( 'NONE',  ( -3.491481338843133355E-15, 1.224646799147353207E-16, -1.000000000000000000 ) ) ;
#140 = EDGE_CURVE ( 'NONE', #155, #155, #181, .T. ) ;
#141 = CARTESIAN_POINT ( 'NONE',  ( 4.189777606611760026E-14, 6.523955054579031056E-33, 12.00000000000000000 ) ) ;
#142 = CONICAL_SURFACE ( 'NONE', #7, 0.8000000000000010436, 0.7853981633974516097 ) ;
#143 = LOCAL_TIME ( 15, 48, 10.00000000000000000, #147 ) ;
#144 = CARTESIAN_POINT ( 'NONE',  ( 1.319779946082704535E-13, -4.629164900776995227E-15, 37.79999999999999716 ) ) ;
#145 = CARTESIAN_POINT ( 'NONE',  ( 1.326762908760390423E-13, -4.653657836759941941E-15, 38.00000000000000000 ) ) ;
#146 = PERSON_AND_ORGANIZATION_ROLE ( 'creator' ) ;
#147 = COORDINATED_UNIVERSAL_TIME_OFFSET ( 1, 0, .AHEAD. ) ;
#148 = VERTEX_POINT ( 'NONE', #85 ) ;
#149 = DATE_AND_TIME ( #168, #143 ) ;
#150 = ORIENTED_EDGE ( 'NONE', *, *, #140, .F. ) ;
#151 = CIRCLE ( 'NONE', #101, 0.8699999999999935563 ) ;
#152 = ORIENTED_EDGE ( 'NONE', *, *, #214, .T. ) ;
#153 = CC_DESIGN_SECURITY_CLASSIFICATION ( #55, ( #124 ) ) ;
#154 = ORIENTED_EDGE ( 'NONE', *, *, #164, .T. ) ;
#155 = VERTEX_POINT ( 'NONE', #77 ) ;
#156 = LOCAL_TIME ( 15, 48, 10.00000000000000000, #66 ) ;
#157 = FACE_OUTER_BOUND ( 'NONE', #91, .T. ) ;
#158 = DIRECTION ( 'NONE',  ( -3.491481338843133355E-15, 1.224646799147353207E-16, -1.000000000000000000 ) ) ;
#159 = DIRECTION ( 'NONE',  ( 3.491481338843133355E-15, -1.224646799147353207E-16, 1.000000000000000000 ) ) ;
#160 = DIRECTION ( 'NONE',  ( 0.0000000000000000000, -1.000000000000000000, 0.0000000000000000000 ) ) ;
#161 = APPROVAL_DATE_TIME ( #49, #125 ) ;
#162 = AXIS2_PLACEMENT_3D ( 'NONE', #145, #126, #6 ) ;
#163 = APPROVAL_STATUS ( 'not_yet_approved' ) ;
#164 = EDGE_CURVE ( 'NONE', #2, #2, #151, .T. ) ;
#165 = PERSON_AND_ORGANIZATION ( #20, #121 ) ;
#166 = DESIGN_CONTEXT ( 'detailed design', #75, 'design' ) ;
#167 = ADVANCED_FACE ( 'NONE', ( #3 ), #207, .F. ) ;
#168 = CALENDAR_DATE ( 2021, 7, 10 ) ;
#169 = ORIENTED_EDGE ( 'NONE', *, *, #164, .F. ) ;
#170 = EDGE_LOOP ( 'NONE', ( #150 ) ) ;
#171 = FACE_OUTER_BOUND ( 'NONE', #135, .T. ) ;
#172 = MANIFOLD_SOLID_BREP ( 'Corps-Déplacer/Copier1[2]', #74 ) ;
#173 = EDGE_CURVE ( 'NONE', #205, #205, #134, .T. ) ;
#174 = DIRECTION ( 'NONE',  ( -3.491481338843133355E-15, 1.224646799147353207E-16, -1.000000000000000000 ) ) ;
#175 = AXIS2_PLACEMENT_3D ( 'NONE', #144, #61, #123 ) ;
#176 = FACE_OUTER_BOUND ( 'NONE', #223, .T. ) ;
#177 = DIRECTION ( 'NONE',  ( 0.0000000000000000000, 1.000000000000000000, 0.0000000000000000000 ) ) ;
#178 = PLANE ( 'NONE',  #43 ) ;
#179 = DATE_AND_TIME ( #30, #222 ) ;
#180 = CALENDAR_DATE ( 2021, 7, 10 ) ;
#181 = CIRCLE ( 'NONE', #48, 0.8699999999999964428 ) ;
#182 = AXIS2_PLACEMENT_3D ( 'NONE', #210, #139, #81 ) ;
#183 = PERSON_AND_ORGANIZATION ( #20, #121 ) ;
#184 = PERSON_AND_ORGANIZATION ( #20, #121 ) ;
#185 = FACE_BOUND ( 'NONE', #170, .T. ) ;
#186 = ADVANCED_BREP_SHAPE_REPRESENTATION ( '45537', ( #107, #172, #217 ), #188 ) ;
#187 = CC_DESIGN_PERSON_AND_ORGANIZATION_ASSIGNMENT ( #197, #46, ( #55 ) ) ;
#188 =( GEOMETRIC_REPRESENTATION_CONTEXT ( 3 ) GLOBAL_UNCERTAINTY_ASSIGNED_CONTEXT ( ( #189 ) ) GLOBAL_UNIT_ASSIGNED_CONTEXT ( ( #47, #212, #103 ) ) REPRESENTATION_CONTEXT ( 'NONE', 'WORKASPACE' ) );
#189 = UNCERTAINTY_MEASURE_WITH_UNIT (LENGTH_MEASURE( 1.000000000000000082E-05 ), #47, 'distance_accuracy_value', 'NONE');
#190 = DIRECTION ( 'NONE',  ( 0.0000000000000000000, 1.000000000000000000, 0.0000000000000000000 ) ) ;
#191 = AXIS2_PLACEMENT_3D ( 'NONE', #69, #33, #133 ) ;
#192 = CARTESIAN_POINT ( 'NONE',  ( 4.268394106554976401E-14, -1.497151115183672336E-15, 12.22516660498396135 ) ) ;
#193 = CARTESIAN_POINT ( 'NONE',  ( 1.326762908760390423E-13, -4.653657836759941941E-15, 38.00000000000000000 ) ) ;
#194 = COORDINATED_UNIVERSAL_TIME_OFFSET ( 1, 0, .AHEAD. ) ;
#195 = APPROVAL ( #102, 'UNSPECIFIED' ) ;
#196 = APPLICATION_PROTOCOL_DEFINITION ( 'international standard', 'config_control_design', 1994, #211 ) ;
#197 = PERSON_AND_ORGANIZATION ( #20, #121 ) ;
#198 = DATE_TIME_ROLE ( 'classification_date' ) ;
#199 = CIRCLE ( 'NONE', #182, 0.9999999999999970024 ) ;
#200 = EDGE_LOOP ( 'NONE', ( #152 ) ) ;
#201 = EDGE_LOOP ( 'NONE', ( #56 ) ) ;
#202 = FACE_OUTER_BOUND ( 'NONE', #88, .T. ) ;
#203 = PRODUCT_DEFINITION_SHAPE ( 'NONE', 'NONE',  #204 ) ;
#204 = PRODUCT_DEFINITION ( 'UNKNOWN', '', #124, #166 ) ;
#205 = VERTEX_POINT ( 'NONE', #122 ) ;
#206 = CARTESIAN_POINT ( 'NONE',  ( 4.189777606611760026E-14, -1.469576158976823947E-15, 12.00000000000000000 ) ) ;
#207 = PLANE ( 'NONE',  #59 ) ;
#208 = CIRCLE ( 'NONE', #175, 1.000000000000001110 ) ;
#209 = CYLINDRICAL_SURFACE ( 'NONE', #18, 0.8699999999999949996 ) ;
#210 = CARTESIAN_POINT ( 'NONE',  ( 4.268394106554976401E-14, -1.497151115183672336E-15, 12.22516660498396135 ) ) ;
#211 = APPLICATION_CONTEXT ( 'configuration controlled 3d designs of mechanical parts and assemblies' ) ;
#212 =( NAMED_UNIT ( * ) PLANE_ANGLE_UNIT ( ) SI_UNIT ( $, .RADIAN. ) );
#213 = AXIS2_PLACEMENT_3D ( 'NONE', #22, #39, #96 ) ;
#214 = EDGE_CURVE ( 'NONE', #148, #148, #208, .T. ) ;
#215 = DIRECTION ( 'NONE',  ( 0.0000000000000000000, 0.0000000000000000000, 1.000000000000000000 ) ) ;
#216 = DATE_AND_TIME ( #99, #156 ) ;
#217 = AXIS2_PLACEMENT_3D ( 'NONE', #218, #215, #10 ) ;
#218 = CARTESIAN_POINT ( 'NONE',  ( 0.0000000000000000000, 0.0000000000000000000, 0.0000000000000000000 ) ) ;
#219 = ORIENTED_EDGE ( 'NONE', *, *, #106, .F. ) ;
#220 = EDGE_LOOP ( 'NONE', ( #17 ) ) ;
#221 = ADVANCED_FACE ( 'NONE', ( #127, #109 ), #142, .T. ) ;
#222 = LOCAL_TIME ( 15, 48, 10.00000000000000000, #194 ) ;
#223 = EDGE_LOOP ( 'NONE', ( #154 ) ) ;
ENDSEC;
END-ISO-10303-21;
