ISO-10303-21;
HEADER;
FILE_DESCRIPTION (( 'STEP AP203' ),
    '1' );
FILE_NAME ('45536.step',
    '2021-10-07T13:48:09',
    ( '' ),
    ( '' ),
    'SwSTEP 2.0',
    'SolidWorks 2019',
    '' );
FILE_SCHEMA (( 'CONFIG_CONTROL_DESIGN' ));
ENDSEC;

DATA;
#1 = EDGE_LOOP ( 'NONE', ( #75 ) ) ;
#2 = EDGE_LOOP ( 'NONE', ( #92 ) ) ;
#3 = CARTESIAN_POINT ( 'NONE',  ( 4.189777606611760657E-14, -1.469576158976824144E-15, 12.00000000000000178 ) ) ;
#4 = CALENDAR_DATE ( 2021, 7, 10 ) ;
#5 = CC_DESIGN_APPROVAL ( #81, ( #62 ) ) ;
#6 = APPROVAL ( #223, 'UNSPECIFIED' ) ;
#7 = DIRECTION ( 'NONE',  ( -4.275831445896958607E-31, -1.000000000000000000, -1.224646799147353207E-16 ) ) ;
#8 = AXIS2_PLACEMENT_3D ( 'NONE', #113, #11, #182 ) ;
#9 = CARTESIAN_POINT ( 'NONE',  ( 4.277465241163808914E-14, 0.9999999999999954481, 12.25114736709749508 ) ) ;
#10 = PRODUCT_DEFINITION_FORMATION_WITH_SPECIFIED_SOURCE ( 'ANY', '', #59, .NOT_KNOWN. ) ;
#11 = DIRECTION ( 'NONE',  ( -3.491481338843133355E-15, 1.224646799147353207E-16, -1.000000000000000000 ) ) ;
#12 = CARTESIAN_POINT ( 'NONE',  ( 4.277465241163808914E-14, -1.500332840899847272E-15, 12.25114736709749508 ) ) ;
#13 = FACE_OUTER_BOUND ( 'NONE', #140, .T. ) ;
#14 = AXIS2_PLACEMENT_3D ( 'NONE', #208, #25, #90 ) ;
#15 = EDGE_CURVE ( 'NONE', #33, #33, #162, .T. ) ;
#16 = PERSON_AND_ORGANIZATION_ROLE ( 'design_supplier' ) ;
#17 = MANIFOLD_SOLID_BREP ( 'Corps-Déplacer/Copier1[1]', #205 ) ;
#18 = APPROVAL_ROLE ( '' ) ;
#19 = PRODUCT_RELATED_PRODUCT_CATEGORY ( 'detail', '', ( #59 ) ) ;
#20 =( NAMED_UNIT ( * ) PLANE_ANGLE_UNIT ( ) SI_UNIT ( $, .RADIAN. ) );
#21 = CARTESIAN_POINT ( 'NONE',  ( 0.0000000000000000000, 0.0000000000000000000, 0.0000000000000000000 ) ) ;
#22 = DATE_AND_TIME ( #74, #31 ) ;
#23 = CIRCLE ( 'NONE', #53, 0.9999999999999970024 ) ;
#24 = EDGE_CURVE ( 'NONE', #184, #184, #44, .T. ) ;
#25 = DIRECTION ( 'NONE',  ( -3.491481338843133355E-15, 1.224646799147353207E-16, -1.000000000000000000 ) ) ;
#26 = EDGE_LOOP ( 'NONE', ( #93 ) ) ;
#27 = LOCAL_TIME ( 15, 48, 9.000000000000000000, #88 ) ;
#28 = CC_DESIGN_PERSON_AND_ORGANIZATION_ASSIGNMENT ( #199, #55, ( #10 ) ) ;
#29 = CARTESIAN_POINT ( 'NONE',  ( 4.189777606611760657E-14, 0.8549999999999928768, 12.00000000000000178 ) ) ;
#30 = CARTESIAN_POINT ( 'NONE',  ( 4.189777606611760026E-14, 6.411473070879377230E-33, 12.00000000000000000 ) ) ;
#31 = LOCAL_TIME ( 15, 48, 9.000000000000000000, #174 ) ;
#32 = ADVANCED_FACE ( 'NONE', ( #34, #79 ), #83, .T. ) ;
#33 = VERTEX_POINT ( 'NONE', #116 ) ;
#34 = FACE_OUTER_BOUND ( 'NONE', #178, .T. ) ;
#35 = DIRECTION ( 'NONE',  ( -3.491481338843133355E-15, 1.224646799147353207E-16, -1.000000000000000000 ) ) ;
#36 = AXIS2_PLACEMENT_3D ( 'NONE', #3, #76, #141 ) ;
#37 = AXIS2_PLACEMENT_3D ( 'NONE', #30, #163, #161 ) ;
#38 = APPROVAL_ROLE ( '' ) ;
#39 = DATE_AND_TIME ( #155, #27 ) ;
#40 = SECURITY_CLASSIFICATION_LEVEL ( 'unclassified' ) ;
#41 = ORIENTED_EDGE ( 'NONE', *, *, #86, .T. ) ;
#42 = ORIENTED_EDGE ( 'NONE', *, *, #15, .F. ) ;
#43 = CC_DESIGN_DATE_AND_TIME_ASSIGNMENT ( #39, #171, ( #164 ) ) ;
#44 = CIRCLE ( 'NONE', #36, 0.8549999999999944311 ) ;
#45 = AXIS2_PLACEMENT_3D ( 'NONE', #115, #134, #159 ) ;
#46 = ORIENTED_EDGE ( 'NONE', *, *, #24, .F. ) ;
#47 = CARTESIAN_POINT ( 'NONE',  ( 1.326762908760390423E-13, 5.999039130647368167E-33, 38.00000000000000000 ) ) ;
#48 = ADVANCED_FACE ( 'NONE', ( #166, #146 ), #61, .T. ) ;
#49 = FACE_OUTER_BOUND ( 'NONE', #210, .T. ) ;
#50 = DIRECTION ( 'NONE',  ( -3.491481338843133355E-15, 1.224646799147353207E-16, -1.000000000000000000 ) ) ;
#51 = DIRECTION ( 'NONE',  ( 3.491481338843133355E-15, -1.224646799147353207E-16, 1.000000000000000000 ) ) ;
#52 = DATE_TIME_ROLE ( 'classification_date' ) ;
#53 = AXIS2_PLACEMENT_3D ( 'NONE', #12, #50, #94 ) ;
#54 = PERSON_AND_ORGANIZATION ( #157, #168 ) ;
#55 = PERSON_AND_ORGANIZATION_ROLE ( 'creator' ) ;
#56 = CC_DESIGN_APPROVAL ( #70, ( #10 ) ) ;
#57 = PERSON_AND_ORGANIZATION ( #157, #168 ) ;
#58 = EDGE_LOOP ( 'NONE', ( #111 ) ) ;
#59 = PRODUCT ( '45536', '45536', '', ( #73 ) ) ;
#60 = LOCAL_TIME ( 15, 48, 9.000000000000000000, #102 ) ;
#61 = CONICAL_SURFACE ( 'NONE', #185, 0.9999999999999970024, 0.5235987755982961511 ) ;
#62 = SECURITY_CLASSIFICATION ( '', '', #40 ) ;
#63 = VERTEX_POINT ( 'NONE', #9 ) ;
#64 = ADVANCED_FACE ( 'NONE', ( #49 ), #130, .F. ) ;
#65 = CARTESIAN_POINT ( 'NONE',  ( 0.0000000000000000000, 0.0000000000000000000, 0.0000000000000000000 ) ) ;
#66 = CYLINDRICAL_SURFACE ( 'NONE', #125, 0.9999999999999991118 ) ;
#67 = CIRCLE ( 'NONE', #45, 0.8000000000000010436 ) ;
#68 = FACE_BOUND ( 'NONE', #1, .T. ) ;
#69 = CARTESIAN_POINT ( 'NONE',  ( 4.277465241163808914E-14, -1.500332840899847272E-15, 12.25114736709749508 ) ) ;
#70 = APPROVAL ( #123, 'UNSPECIFIED' ) ;
#71 = PERSON_AND_ORGANIZATION ( #157, #168 ) ;
#72 = CALENDAR_DATE ( 2021, 7, 10 ) ;
#73 = MECHANICAL_CONTEXT ( 'NONE', #212, 'mechanical' ) ;
#74 = CALENDAR_DATE ( 2021, 7, 10 ) ;
#75 = ORIENTED_EDGE ( 'NONE', *, *, #117, .T. ) ;
#76 = DIRECTION ( 'NONE',  ( -3.491481338843133355E-15, 1.224646799147353207E-16, -1.000000000000000000 ) ) ;
#77 = CC_DESIGN_PERSON_AND_ORGANIZATION_ASSIGNMENT ( #57, #87, ( #59 ) ) ;
#78 = ORIENTED_EDGE ( 'NONE', *, *, #108, .F. ) ;
#79 = FACE_OUTER_BOUND ( 'NONE', #2, .T. ) ;
#80 = VERTEX_POINT ( 'NONE', #145 ) ;
#81 = APPROVAL ( #186, 'UNSPECIFIED' ) ;
#82 = CARTESIAN_POINT ( 'NONE',  ( 4.189777606611760026E-14, 6.411473070879377230E-33, 12.00000000000000000 ) ) ;
#83 = CYLINDRICAL_SURFACE ( 'NONE', #152, 0.8549999999999939870 ) ;
#84 = PLANE ( 'NONE',  #222 ) ;
#85 = PERSON_AND_ORGANIZATION_ROLE ( 'classification_officer' ) ;
#86 = EDGE_CURVE ( 'NONE', #143, #143, #118, .T. ) ;
#87 = PERSON_AND_ORGANIZATION_ROLE ( 'design_owner' ) ;
#88 = COORDINATED_UNIVERSAL_TIME_OFFSET ( 1, 0, .AHEAD. ) ;
#89 = DATE_AND_TIME ( #4, #60 ) ;
#90 = DIRECTION ( 'NONE',  ( 0.0000000000000000000, 1.000000000000000000, 0.0000000000000000000 ) ) ;
#91 =( GEOMETRIC_REPRESENTATION_CONTEXT ( 3 ) GLOBAL_UNCERTAINTY_ASSIGNED_CONTEXT ( ( #200 ) ) GLOBAL_UNIT_ASSIGNED_CONTEXT ( ( #221, #20, #121 ) ) REPRESENTATION_CONTEXT ( 'NONE', 'WORKASPACE' ) );
#92 = ORIENTED_EDGE ( 'NONE', *, *, #24, .T. ) ;
#93 = ORIENTED_EDGE ( 'NONE', *, *, #86, .F. ) ;
#94 = DIRECTION ( 'NONE',  ( 0.0000000000000000000, 1.000000000000000000, 0.0000000000000000000 ) ) ;
#95 = CONICAL_SURFACE ( 'NONE', #219, 0.8000000000000010436, 0.7853981633974516097 ) ;
#96 = PLANE ( 'NONE',  #37 ) ;
#97 = DIRECTION ( 'NONE',  ( 4.505099285116375508E-31, 1.000000000000000000, 1.268072716357324791E-16 ) ) ;
#98 = EDGE_CURVE ( 'NONE', #63, #63, #23, .T. ) ;
#99 = DIRECTION ( 'NONE',  ( 4.275831445896958607E-31, 1.000000000000000000, 1.224646799147353454E-16 ) ) ;
#100 = LOCAL_TIME ( 15, 48, 9.000000000000000000, #103 ) ;
#101 = APPROVAL_DATE_TIME ( #22, #6 ) ;
#102 = COORDINATED_UNIVERSAL_TIME_OFFSET ( 1, 0, .AHEAD. ) ;
#103 = COORDINATED_UNIVERSAL_TIME_OFFSET ( 1, 0, .AHEAD. ) ;
#104 = CALENDAR_DATE ( 2021, 7, 10 ) ;
#105 = CLOSED_SHELL ( 'NONE', ( #201, #32, #131 ) ) ;
#106 = PRODUCT_DEFINITION_SHAPE ( 'NONE', 'NONE',  #164 ) ;
#107 = CC_DESIGN_APPROVAL ( #6, ( #164 ) ) ;
#108 = EDGE_CURVE ( 'NONE', #80, #80, #173, .T. ) ;
#109 = EDGE_LOOP ( 'NONE', ( #41 ) ) ;
#110 = APPROVAL_DATE_TIME ( #89, #81 ) ;
#111 = ORIENTED_EDGE ( 'NONE', *, *, #98, .T. ) ;
#112 = FACE_OUTER_BOUND ( 'NONE', #175, .T. ) ;
#113 = CARTESIAN_POINT ( 'NONE',  ( 1.319779946082704535E-13, -4.629164900776995227E-15, 37.79999999999999716 ) ) ;
#114 = CARTESIAN_POINT ( 'NONE',  ( 1.793699060986299093E-15, -6.291449389210600763E-17, 0.5137358292685656469 ) ) ;
#115 = CARTESIAN_POINT ( 'NONE',  ( 1.326762908760390423E-13, -4.653657836759941941E-15, 38.00000000000000000 ) ) ;
#116 = CARTESIAN_POINT ( 'NONE',  ( 4.189777606611760657E-14, 0.8549999999999928768, 12.00000000000000178 ) ) ;
#117 = EDGE_CURVE ( 'NONE', #204, #204, #67, .T. ) ;
#118 = CIRCLE ( 'NONE', #8, 1.000000000000001110 ) ;
#119 = PERSON_AND_ORGANIZATION ( #157, #168 ) ;
#120 = CC_DESIGN_DATE_AND_TIME_ASSIGNMENT ( #150, #52, ( #62 ) ) ;
#121 =( NAMED_UNIT ( * ) SI_UNIT ( $, .STERADIAN. ) SOLID_ANGLE_UNIT ( ) );
#122 = AXIS2_PLACEMENT_3D ( 'NONE', #21, #136, #172 ) ;
#123 = APPROVAL_STATUS ( 'not_yet_approved' ) ;
#124 = ADVANCED_FACE ( 'NONE', ( #183, #68 ), #95, .T. ) ;
#125 = AXIS2_PLACEMENT_3D ( 'NONE', #132, #198, #196 ) ;
#126 = SHAPE_DEFINITION_REPRESENTATION ( #106, #144 ) ;
#127 = EDGE_LOOP ( 'NONE', ( #128 ) ) ;
#128 = ORIENTED_EDGE ( 'NONE', *, *, #98, .F. ) ;
#129 = FACE_OUTER_BOUND ( 'NONE', #191, .T. ) ;
#130 = PLANE ( 'NONE',  #213 ) ;
#131 = ADVANCED_FACE ( 'NONE', ( #112 ), #96, .T. ) ;
#132 = CARTESIAN_POINT ( 'NONE',  ( 0.0000000000000000000, 0.0000000000000000000, 0.0000000000000000000 ) ) ;
#133 = DIRECTION ( 'NONE',  ( 0.0000000000000000000, -1.000000000000000000, 0.0000000000000000000 ) ) ;
#134 = DIRECTION ( 'NONE',  ( -3.491481338843133355E-15, 1.224646799147353207E-16, -1.000000000000000000 ) ) ;
#135 = COORDINATED_UNIVERSAL_TIME_OFFSET ( 1, 0, .AHEAD. ) ;
#136 = DIRECTION ( 'NONE',  ( 0.0000000000000000000, 0.0000000000000000000, 1.000000000000000000 ) ) ;
#137 = DATE_AND_TIME ( #72, #100 ) ;
#138 = APPLICATION_PROTOCOL_DEFINITION ( 'international standard', 'config_control_design', 1994, #156 ) ;
#139 = AXIS2_PLACEMENT_3D ( 'NONE', #114, #51, #216 ) ;
#140 = EDGE_LOOP ( 'NONE', ( #142 ) ) ;
#141 = DIRECTION ( 'NONE',  ( 0.0000000000000000000, 1.000000000000000000, 0.0000000000000000000 ) ) ;
#142 = ORIENTED_EDGE ( 'NONE', *, *, #15, .T. ) ;
#143 = VERTEX_POINT ( 'NONE', #214 ) ;
#144 = ADVANCED_BREP_SHAPE_REPRESENTATION ( '45536', ( #17, #160, #122 ), #91 ) ;
#145 = CARTESIAN_POINT ( 'NONE',  ( 1.793699060986299487E-15, 0.8549999999999934319, 0.5137358292685657579 ) ) ;
#146 = FACE_OUTER_BOUND ( 'NONE', #58, .T. ) ;
#147 = DIRECTION ( 'NONE',  ( 3.491481338843133355E-15, -1.224646799147353207E-16, 1.000000000000000000 ) ) ;
#148 = APPROVAL_PERSON_ORGANIZATION ( #207, #70, #188 ) ;
#149 = DIRECTION ( 'NONE',  ( 0.0000000000000000000, 1.000000000000000000, 0.0000000000000000000 ) ) ;
#150 = DATE_AND_TIME ( #104, #206 ) ;
#151 = CARTESIAN_POINT ( 'NONE',  ( 1.326762908760390423E-13, 0.7999999999999963807, 38.00000000000000000 ) ) ;
#152 = AXIS2_PLACEMENT_3D ( 'NONE', #65, #35, #99 ) ;
#153 = APPROVAL_PERSON_ORGANIZATION ( #119, #81, #38 ) ;
#154 = APPLICATION_PROTOCOL_DEFINITION ( 'international standard', 'config_control_design', 1994, #212 ) ;
#155 = CALENDAR_DATE ( 2021, 7, 10 ) ;
#156 = APPLICATION_CONTEXT ( 'configuration controlled 3d designs of mechanical parts and assemblies' ) ;
#157 = PERSON ( 'UNSPECIFIED', 'UNSPECIFIED', 'UNSPECIFIED', ('UNSPECIFIED'), ('UNSPECIFIED'), ('UNSPECIFIED') ) ;
#158 = AXIS2_PLACEMENT_3D ( 'NONE', #179, #194, #97 ) ;
#159 = DIRECTION ( 'NONE',  ( 0.0000000000000000000, 1.000000000000000000, 0.0000000000000000000 ) ) ;
#160 = MANIFOLD_SOLID_BREP ( 'Corps-Déplacer/Copier1[2]', #105 ) ;
#161 = DIRECTION ( 'NONE',  ( -4.275831445896958607E-31, -1.000000000000000000, -1.224646799147353207E-16 ) ) ;
#162 = CIRCLE ( 'NONE', #14, 0.8549999999999944311 ) ;
#163 = DIRECTION ( 'NONE',  ( 3.491481338843133355E-15, -1.224646799147353207E-16, 1.000000000000000000 ) ) ;
#164 = PRODUCT_DEFINITION ( 'UNKNOWN', '', #10, #167 ) ;
#165 = DIRECTION ( 'NONE',  ( 3.491481338843133355E-15, -1.224646799147353207E-16, 1.000000000000000000 ) ) ;
#166 = FACE_BOUND ( 'NONE', #209, .T. ) ;
#167 = DESIGN_CONTEXT ( 'detailed design', #156, 'design' ) ;
#168 = ORGANIZATION ( 'UNSPECIFIED', 'UNSPECIFIED', '' ) ;
#169 = CC_DESIGN_PERSON_AND_ORGANIZATION_ASSIGNMENT ( #71, #85, ( #62 ) ) ;
#170 = PERSON_AND_ORGANIZATION_ROLE ( 'creator' ) ;
#171 = DATE_TIME_ROLE ( 'creation_date' ) ;
#172 = DIRECTION ( 'NONE',  ( 1.000000000000000000, 0.0000000000000000000, 0.0000000000000000000 ) ) ;
#173 = CIRCLE ( 'NONE', #158, 0.8549999999999935429 ) ;
#174 = COORDINATED_UNIVERSAL_TIME_OFFSET ( 1, 0, .AHEAD. ) ;
#175 = EDGE_LOOP ( 'NONE', ( #46 ) ) ;
#176 = ADVANCED_FACE ( 'NONE', ( #13 ), #84, .F. ) ;
#177 = ORIENTED_EDGE ( 'NONE', *, *, #108, .T. ) ;
#178 = EDGE_LOOP ( 'NONE', ( #78 ) ) ;
#179 = CARTESIAN_POINT ( 'NONE',  ( 1.793699060986299093E-15, -6.291449389210600763E-17, 0.5137358292685656469 ) ) ;
#180 = DIRECTION ( 'NONE',  ( -3.491481338843133355E-15, 1.224646799147353207E-16, -1.000000000000000000 ) ) ;
#181 = CC_DESIGN_SECURITY_CLASSIFICATION ( #62, ( #10 ) ) ;
#182 = DIRECTION ( 'NONE',  ( 0.0000000000000000000, 1.000000000000000000, 0.0000000000000000000 ) ) ;
#183 = FACE_OUTER_BOUND ( 'NONE', #26, .T. ) ;
#184 = VERTEX_POINT ( 'NONE', #29 ) ;
#185 = AXIS2_PLACEMENT_3D ( 'NONE', #69, #147, #133 ) ;
#186 = APPROVAL_STATUS ( 'not_yet_approved' ) ;
#187 = PERSON_AND_ORGANIZATION ( #157, #168 ) ;
#188 = APPROVAL_ROLE ( '' ) ;
#189 = CONICAL_SURFACE ( 'NONE', #139, 0.8549999999999935429, 1.029744258676649871 ) ;
#190 = CC_DESIGN_PERSON_AND_ORGANIZATION_ASSIGNMENT ( #54, #170, ( #164 ) ) ;
#191 = EDGE_LOOP ( 'NONE', ( #177 ) ) ;
#192 = APPROVAL_PERSON_ORGANIZATION ( #202, #6, #18 ) ;
#193 = ADVANCED_FACE ( 'NONE', ( #217, #220 ), #66, .T. ) ;
#194 = DIRECTION ( 'NONE',  ( -3.491481338843133355E-15, 1.224646799147353207E-16, -1.000000000000000000 ) ) ;
#195 = DIRECTION ( 'NONE',  ( 4.275831445896958607E-31, 1.000000000000000000, 1.224646799147353207E-16 ) ) ;
#196 = DIRECTION ( 'NONE',  ( 4.275831445896957731E-31, 1.000000000000000000, 1.224646799147353207E-16 ) ) ;
#197 = DIRECTION ( 'NONE',  ( -3.491481338843133355E-15, 1.224646799147353207E-16, -1.000000000000000000 ) ) ;
#198 = DIRECTION ( 'NONE',  ( -3.491481338843133355E-15, 1.224646799147353207E-16, -1.000000000000000000 ) ) ;
#199 = PERSON_AND_ORGANIZATION ( #157, #168 ) ;
#200 = UNCERTAINTY_MEASURE_WITH_UNIT (LENGTH_MEASURE( 1.000000000000000082E-05 ), #221, 'distance_accuracy_value', 'NONE');
#201 = ADVANCED_FACE ( 'NONE', ( #129 ), #189, .T. ) ;
#202 = PERSON_AND_ORGANIZATION ( #157, #168 ) ;
#203 = APPROVAL_DATE_TIME ( #137, #70 ) ;
#204 = VERTEX_POINT ( 'NONE', #151 ) ;
#205 = CLOSED_SHELL ( 'NONE', ( #176, #48, #193, #124, #64 ) ) ;
#206 = LOCAL_TIME ( 15, 48, 9.000000000000000000, #135 ) ;
#207 = PERSON_AND_ORGANIZATION ( #157, #168 ) ;
#208 = CARTESIAN_POINT ( 'NONE',  ( 4.189777606611760657E-14, -1.469576158976824144E-15, 12.00000000000000178 ) ) ;
#209 = EDGE_LOOP ( 'NONE', ( #42 ) ) ;
#210 = EDGE_LOOP ( 'NONE', ( #211 ) ) ;
#211 = ORIENTED_EDGE ( 'NONE', *, *, #117, .F. ) ;
#212 = APPLICATION_CONTEXT ( 'configuration controlled 3d designs of mechanical parts and assemblies' ) ;
#213 = AXIS2_PLACEMENT_3D ( 'NONE', #47, #197, #195 ) ;
#214 = CARTESIAN_POINT ( 'NONE',  ( 1.319779946082704535E-13, 0.9999999999999965583, 37.79999999999999716 ) ) ;
#215 = CC_DESIGN_PERSON_AND_ORGANIZATION_ASSIGNMENT ( #187, #16, ( #10 ) ) ;
#216 = DIRECTION ( 'NONE',  ( -4.505099285116375508E-31, -1.000000000000000000, -1.268072716357324791E-16 ) ) ;
#217 = FACE_OUTER_BOUND ( 'NONE', #127, .T. ) ;
#218 = CARTESIAN_POINT ( 'NONE',  ( 1.326762908760390423E-13, -4.653657836759941941E-15, 38.00000000000000000 ) ) ;
#219 = AXIS2_PLACEMENT_3D ( 'NONE', #218, #180, #149 ) ;
#220 = FACE_OUTER_BOUND ( 'NONE', #109, .T. ) ;
#221 =( LENGTH_UNIT ( ) NAMED_UNIT ( * ) SI_UNIT ( .MILLI., .METRE. ) );
#222 = AXIS2_PLACEMENT_3D ( 'NONE', #82, #165, #7 ) ;
#223 = APPROVAL_STATUS ( 'not_yet_approved' ) ;
ENDSEC;
END-ISO-10303-21;
