ISO-10303-21;
HEADER;
FILE_DESCRIPTION (( 'STEP AP203' ),
    '1' );
FILE_NAME ('45535.step',
    '2021-10-07T13:48:08',
    ( '' ),
    ( '' ),
    'SwSTEP 2.0',
    'SolidWorks 2019',
    '' );
FILE_SCHEMA (( 'CONFIG_CONTROL_DESIGN' ));
ENDSEC;

DATA;
#1 = AXIS2_PLACEMENT_3D ( 'NONE', #39, #156, #7 ) ;
#2 = EDGE_LOOP ( 'NONE', ( #155 ) ) ;
#3 = DIRECTION ( 'NONE',  ( 4.275831445896958607E-31, 1.000000000000000000, 1.224646799147353207E-16 ) ) ;
#4 = ADVANCED_FACE ( 'NONE', ( #175 ), #157, .F. ) ;
#5 = CIRCLE ( 'NONE', #191, 0.8449999999999935341 ) ;
#6 = PLANE ( 'NONE',  #159 ) ;
#7 = DIRECTION ( 'NONE',  ( 0.0000000000000000000, 1.000000000000000000, 0.0000000000000000000 ) ) ;
#8 = CC_DESIGN_PERSON_AND_ORGANIZATION_ASSIGNMENT ( #202, #114, ( #140 ) ) ;
#9 = CARTESIAN_POINT ( 'NONE',  ( 0.0000000000000000000, 0.0000000000000000000, 0.0000000000000000000 ) ) ;
#10 = VERTEX_POINT ( 'NONE', #165 ) ;
#11 = FACE_BOUND ( 'NONE', #105, .T. ) ;
#12 = FACE_OUTER_BOUND ( 'NONE', #120, .T. ) ;
#13 = APPLICATION_CONTEXT ( 'configuration controlled 3d designs of mechanical parts and assemblies' ) ;
#14 =( NAMED_UNIT ( * ) PLANE_ANGLE_UNIT ( ) SI_UNIT ( $, .RADIAN. ) );
#15 = CC_DESIGN_SECURITY_CLASSIFICATION ( #186, ( #34 ) ) ;
#16 = MANIFOLD_SOLID_BREP ( 'Corps-Déplacer/Copier1[1]', #75 ) ;
#17 = CALENDAR_DATE ( 2021, 7, 10 ) ;
#18 = ADVANCED_FACE ( 'NONE', ( #139 ), #104, .F. ) ;
#19 = PERSON_AND_ORGANIZATION_ROLE ( 'design_owner' ) ;
#20 = DESIGN_CONTEXT ( 'detailed design', #146, 'design' ) ;
#21 = PERSON_AND_ORGANIZATION ( #78, #53 ) ;
#22 = DATE_AND_TIME ( #85, #203 ) ;
#23 = FACE_OUTER_BOUND ( 'NONE', #73, .T. ) ;
#24 = APPROVAL ( #72, 'UNSPECIFIED' ) ;
#25 = FACE_OUTER_BOUND ( 'NONE', #61, .T. ) ;
#26 = DIRECTION ( 'NONE',  ( 4.275831445896957731E-31, 1.000000000000000000, 1.224646799147353207E-16 ) ) ;
#27 = ADVANCED_FACE ( 'NONE', ( #143, #23 ), #106, .T. ) ;
#28 = FACE_OUTER_BOUND ( 'NONE', #103, .T. ) ;
#29 = DIRECTION ( 'NONE',  ( 0.0000000000000000000, 1.000000000000000000, 0.0000000000000000000 ) ) ;
#30 = AXIS2_PLACEMENT_3D ( 'NONE', #57, #158, #193 ) ;
#31 = ADVANCED_BREP_SHAPE_REPRESENTATION ( '45535', ( #16, #93, #121 ), #36 ) ;
#32 = CARTESIAN_POINT ( 'NONE',  ( 0.0000000000000000000, 0.0000000000000000000, 0.0000000000000000000 ) ) ;
#33 = DATE_AND_TIME ( #205, #117 ) ;
#34 = PRODUCT_DEFINITION_FORMATION_WITH_SPECIFIED_SOURCE ( 'ANY', '', #219, .NOT_KNOWN. ) ;
#35 = PERSON_AND_ORGANIZATION_ROLE ( 'classification_officer' ) ;
#36 =( GEOMETRIC_REPRESENTATION_CONTEXT ( 3 ) GLOBAL_UNCERTAINTY_ASSIGNED_CONTEXT ( ( #185 ) ) GLOBAL_UNIT_ASSIGNED_CONTEXT ( ( #48, #14, #127 ) ) REPRESENTATION_CONTEXT ( 'NONE', 'WORKASPACE' ) );
#37 = COORDINATED_UNIVERSAL_TIME_OFFSET ( 1, 0, .AHEAD. ) ;
#38 = EDGE_LOOP ( 'NONE', ( #124 ) ) ;
#39 = CARTESIAN_POINT ( 'NONE',  ( 4.189777606611760657E-14, -1.469576158976824144E-15, 12.00000000000000178 ) ) ;
#40 = APPROVAL_PERSON_ORGANIZATION ( #218, #89, #171 ) ;
#41 = ORIENTED_EDGE ( 'NONE', *, *, #126, .F. ) ;
#42 = EDGE_LOOP ( 'NONE', ( #172 ) ) ;
#43 = ADVANCED_FACE ( 'NONE', ( #25 ), #6, .T. ) ;
#44 = AXIS2_PLACEMENT_3D ( 'NONE', #79, #164, #201 ) ;
#45 = CARTESIAN_POINT ( 'NONE',  ( 4.189777606611760657E-14, 0.8449999999999942002, 12.00000000000000178 ) ) ;
#46 = CARTESIAN_POINT ( 'NONE',  ( 1.326762908760390423E-13, -4.653657836759941941E-15, 38.00000000000000000 ) ) ;
#47 = CIRCLE ( 'NONE', #1, 0.8449999999999957545 ) ;
#48 =( LENGTH_UNIT ( ) NAMED_UNIT ( * ) SI_UNIT ( .MILLI., .METRE. ) );
#49 = FACE_OUTER_BOUND ( 'NONE', #38, .T. ) ;
#50 = PRODUCT_RELATED_PRODUCT_CATEGORY ( 'detail', '', ( #219 ) ) ;
#51 = APPROVAL_DATE_TIME ( #33, #89 ) ;
#52 = DATE_AND_TIME ( #135, #161 ) ;
#53 = ORGANIZATION ( 'UNSPECIFIED', 'UNSPECIFIED', '' ) ;
#54 = APPROVAL_STATUS ( 'not_yet_approved' ) ;
#55 = MECHANICAL_CONTEXT ( 'NONE', #13, 'mechanical' ) ;
#56 = AXIS2_PLACEMENT_3D ( 'NONE', #112, #145, #66 ) ;
#57 = CARTESIAN_POINT ( 'NONE',  ( 4.189777606611760026E-14, 6.336485081746293381E-33, 12.00000000000000000 ) ) ;
#58 = EDGE_LOOP ( 'NONE', ( #90 ) ) ;
#59 = CIRCLE ( 'NONE', #44, 1.000000000000001110 ) ;
#60 = CIRCLE ( 'NONE', #134, 0.8000000000000010436 ) ;
#61 = EDGE_LOOP ( 'NONE', ( #189 ) ) ;
#62 = EDGE_LOOP ( 'NONE', ( #209 ) ) ;
#63 = CARTESIAN_POINT ( 'NONE',  ( 1.772720124600494132E-15, -6.217865185828019448E-17, 0.5077272230782899909 ) ) ;
#64 = DIRECTION ( 'NONE',  ( -4.558414069555622757E-31, -1.000000000000000000, -1.283079494065695555E-16 ) ) ;
#65 = CC_DESIGN_PERSON_AND_ORGANIZATION_ASSIGNMENT ( #21, #137, ( #34 ) ) ;
#66 = DIRECTION ( 'NONE',  ( 0.0000000000000000000, 1.000000000000000000, 0.0000000000000000000 ) ) ;
#67 = APPROVAL_PERSON_ORGANIZATION ( #168, #24, #115 ) ;
#68 = APPLICATION_PROTOCOL_DEFINITION ( 'international standard', 'config_control_design', 1994, #146 ) ;
#69 = EDGE_CURVE ( 'NONE', #83, #83, #47, .T. ) ;
#70 = APPROVAL_STATUS ( 'not_yet_approved' ) ;
#71 = COORDINATED_UNIVERSAL_TIME_OFFSET ( 1, 0, .AHEAD. ) ;
#72 = APPROVAL_STATUS ( 'not_yet_approved' ) ;
#73 = EDGE_LOOP ( 'NONE', ( #92 ) ) ;
#74 = ORIENTED_EDGE ( 'NONE', *, *, #213, .T. ) ;
#75 = CLOSED_SHELL ( 'NONE', ( #18, #173, #27, #81, #4 ) ) ;
#76 = EDGE_CURVE ( 'NONE', #179, #179, #174, .T. ) ;
#77 = DIRECTION ( 'NONE',  ( -3.491481338843133355E-15, 1.224646799147353207E-16, -1.000000000000000000 ) ) ;
#78 = PERSON ( 'UNSPECIFIED', 'UNSPECIFIED', 'UNSPECIFIED', ('UNSPECIFIED'), ('UNSPECIFIED'), ('UNSPECIFIED') ) ;
#79 = CARTESIAN_POINT ( 'NONE',  ( 1.319779946082704535E-13, -4.629164900776995227E-15, 37.79999999999999716 ) ) ;
#80 = CC_DESIGN_APPROVAL ( #89, ( #140 ) ) ;
#81 = ADVANCED_FACE ( 'NONE', ( #49, #183 ), #221, .T. ) ;
#82 = DIRECTION ( 'NONE',  ( 0.0000000000000000000, 1.000000000000000000, 0.0000000000000000000 ) ) ;
#83 = VERTEX_POINT ( 'NONE', #45 ) ;
#84 = CIRCLE ( 'NONE', #207, 0.9999999999999970024 ) ;
#85 = CALENDAR_DATE ( 2021, 7, 10 ) ;
#86 = DATE_AND_TIME ( #88, #182 ) ;
#87 = CC_DESIGN_PERSON_AND_ORGANIZATION_ASSIGNMENT ( #169, #35, ( #186 ) ) ;
#88 = CALENDAR_DATE ( 2021, 7, 10 ) ;
#89 = APPROVAL ( #70, 'UNSPECIFIED' ) ;
#90 = ORIENTED_EDGE ( 'NONE', *, *, #76, .T. ) ;
#91 = AXIS2_PLACEMENT_3D ( 'NONE', #32, #128, #181 ) ;
#92 = ORIENTED_EDGE ( 'NONE', *, *, #208, .T. ) ;
#93 = MANIFOLD_SOLID_BREP ( 'Corps-Déplacer/Copier1[2]', #210 ) ;
#94 = ORIENTED_EDGE ( 'NONE', *, *, #69, .F. ) ;
#95 = APPROVAL_PERSON_ORGANIZATION ( #100, #188, #116 ) ;
#96 = CARTESIAN_POINT ( 'NONE',  ( 1.319779946082704535E-13, 0.9999999999999965583, 37.79999999999999716 ) ) ;
#97 = DIRECTION ( 'NONE',  ( -3.491481338843133355E-15, 1.224646799147353207E-16, -1.000000000000000000 ) ) ;
#98 = CARTESIAN_POINT ( 'NONE',  ( 1.772720124600494132E-15, -6.217865185828019448E-17, 0.5077272230782899909 ) ) ;
#99 = FACE_OUTER_BOUND ( 'NONE', #194, .T. ) ;
#100 = PERSON_AND_ORGANIZATION ( #78, #53 ) ;
#101 = CC_DESIGN_DATE_AND_TIME_ASSIGNMENT ( #187, #132, ( #140 ) ) ;
#102 = AXIS2_PLACEMENT_3D ( 'NONE', #212, #77, #118 ) ;
#103 = EDGE_LOOP ( 'NONE', ( #74 ) ) ;
#104 = PLANE ( 'NONE',  #30 ) ;
#105 = EDGE_LOOP ( 'NONE', ( #94 ) ) ;
#106 = CYLINDRICAL_SURFACE ( 'NONE', #200, 0.9999999999999991118 ) ;
#107 = DIRECTION ( 'NONE',  ( 3.491481338843133355E-15, -1.224646799147353207E-16, 1.000000000000000000 ) ) ;
#108 = AXIS2_PLACEMENT_3D ( 'NONE', #63, #144, #64 ) ;
#109 = FACE_OUTER_BOUND ( 'NONE', #58, .T. ) ;
#110 = DIRECTION ( 'NONE',  ( 0.0000000000000000000, -1.000000000000000000, 0.0000000000000000000 ) ) ;
#111 = CC_DESIGN_APPROVAL ( #24, ( #34 ) ) ;
#112 = CARTESIAN_POINT ( 'NONE',  ( 1.326762908760390423E-13, -4.653657836759941941E-15, 38.00000000000000000 ) ) ;
#113 = COORDINATED_UNIVERSAL_TIME_OFFSET ( 1, 0, .AHEAD. ) ;
#114 = PERSON_AND_ORGANIZATION_ROLE ( 'creator' ) ;
#115 = APPROVAL_ROLE ( '' ) ;
#116 = APPROVAL_ROLE ( '' ) ;
#117 = LOCAL_TIME ( 15, 48, 8.000000000000000000, #133 ) ;
#118 = DIRECTION ( 'NONE',  ( 0.0000000000000000000, 1.000000000000000000, 0.0000000000000000000 ) ) ;
#119 = DIRECTION ( 'NONE',  ( -3.491481338843133355E-15, 1.224646799147353207E-16, -1.000000000000000000 ) ) ;
#120 = EDGE_LOOP ( 'NONE', ( #41 ) ) ;
#121 = AXIS2_PLACEMENT_3D ( 'NONE', #9, #136, #151 ) ;
#122 = CC_DESIGN_PERSON_AND_ORGANIZATION_ASSIGNMENT ( #222, #184, ( #34 ) ) ;
#123 = EDGE_LOOP ( 'NONE', ( #192 ) ) ;
#124 = ORIENTED_EDGE ( 'NONE', *, *, #208, .F. ) ;
#125 = DIRECTION ( 'NONE',  ( 3.491481338843133355E-15, -1.224646799147353207E-16, 1.000000000000000000 ) ) ;
#126 = EDGE_CURVE ( 'NONE', #10, #10, #5, .T. ) ;
#127 =( NAMED_UNIT ( * ) SI_UNIT ( $, .STERADIAN. ) SOLID_ANGLE_UNIT ( ) );
#128 = DIRECTION ( 'NONE',  ( -3.491481338843133355E-15, 1.224646799147353207E-16, -1.000000000000000000 ) ) ;
#129 = CYLINDRICAL_SURFACE ( 'NONE', #91, 0.8449999999999946443 ) ;
#130 = CONICAL_SURFACE ( 'NONE', #216, 0.9999999999999970024, 0.5235987755982929315 ) ;
#131 = DIRECTION ( 'NONE',  ( -3.491481338843133355E-15, 1.224646799147353207E-16, -1.000000000000000000 ) ) ;
#132 = DATE_TIME_ROLE ( 'creation_date' ) ;
#133 = COORDINATED_UNIVERSAL_TIME_OFFSET ( 1, 0, .AHEAD. ) ;
#134 = AXIS2_PLACEMENT_3D ( 'NONE', #46, #162, #29 ) ;
#135 = CALENDAR_DATE ( 2021, 7, 10 ) ;
#136 = DIRECTION ( 'NONE',  ( 0.0000000000000000000, 0.0000000000000000000, 1.000000000000000000 ) ) ;
#137 = PERSON_AND_ORGANIZATION_ROLE ( 'creator' ) ;
#138 = PRODUCT_DEFINITION_SHAPE ( 'NONE', 'NONE',  #140 ) ;
#139 = FACE_OUTER_BOUND ( 'NONE', #123, .T. ) ;
#140 = PRODUCT_DEFINITION ( 'UNKNOWN', '', #34, #20 ) ;
#141 = CARTESIAN_POINT ( 'NONE',  ( 1.326762908760390423E-13, 5.999039130647368167E-33, 38.00000000000000000 ) ) ;
#142 = AXIS2_PLACEMENT_3D ( 'NONE', #141, #211, #3 ) ;
#143 = FACE_OUTER_BOUND ( 'NONE', #42, .T. ) ;
#144 = DIRECTION ( 'NONE',  ( 3.491481338843133355E-15, -1.224646799147353207E-16, 1.000000000000000000 ) ) ;
#145 = DIRECTION ( 'NONE',  ( -3.491481338843133355E-15, 1.224646799147353207E-16, -1.000000000000000000 ) ) ;
#146 = APPLICATION_CONTEXT ( 'configuration controlled 3d designs of mechanical parts and assemblies' ) ;
#147 = VERTEX_POINT ( 'NONE', #96 ) ;
#148 = APPLICATION_PROTOCOL_DEFINITION ( 'international standard', 'config_control_design', 1994, #13 ) ;
#149 = CC_DESIGN_APPROVAL ( #188, ( #186 ) ) ;
#150 = CARTESIAN_POINT ( 'NONE',  ( 4.283512664236363923E-14, -1.502453991377296966E-15, 12.26846787517318305 ) ) ;
#151 = DIRECTION ( 'NONE',  ( 1.000000000000000000, 0.0000000000000000000, 0.0000000000000000000 ) ) ;
#152 = APPROVAL_DATE_TIME ( #86, #24 ) ;
#153 = PERSON_AND_ORGANIZATION ( #78, #53 ) ;
#154 = CONICAL_SURFACE ( 'NONE', #108, 0.8449999999999935341, 1.029744258676649871 ) ;
#155 = ORIENTED_EDGE ( 'NONE', *, *, #166, .T. ) ;
#156 = DIRECTION ( 'NONE',  ( -3.491481338843133355E-15, 1.224646799147353207E-16, -1.000000000000000000 ) ) ;
#157 = PLANE ( 'NONE',  #142 ) ;
#158 = DIRECTION ( 'NONE',  ( 3.491481338843133355E-15, -1.224646799147353207E-16, 1.000000000000000000 ) ) ;
#159 = AXIS2_PLACEMENT_3D ( 'NONE', #190, #107, #160 ) ;
#160 = DIRECTION ( 'NONE',  ( -4.275831445896958607E-31, -1.000000000000000000, -1.224646799147353207E-16 ) ) ;
#161 = LOCAL_TIME ( 15, 48, 8.000000000000000000, #71 ) ;
#162 = DIRECTION ( 'NONE',  ( -3.491481338843133355E-15, 1.224646799147353207E-16, -1.000000000000000000 ) ) ;
#163 = CC_DESIGN_DATE_AND_TIME_ASSIGNMENT ( #52, #206, ( #186 ) ) ;
#164 = DIRECTION ( 'NONE',  ( -3.491481338843133355E-15, 1.224646799147353207E-16, -1.000000000000000000 ) ) ;
#165 = CARTESIAN_POINT ( 'NONE',  ( 1.772720124600494527E-15, 0.8449999999999934230, 0.5077272230782901019 ) ) ;
#166 = EDGE_CURVE ( 'NONE', #178, #178, #60, .T. ) ;
#167 = COORDINATED_UNIVERSAL_TIME_OFFSET ( 1, 0, .AHEAD. ) ;
#168 = PERSON_AND_ORGANIZATION ( #78, #53 ) ;
#169 = PERSON_AND_ORGANIZATION ( #78, #53 ) ;
#170 = LOCAL_TIME ( 15, 48, 8.000000000000000000, #113 ) ;
#171 = APPROVAL_ROLE ( '' ) ;
#172 = ORIENTED_EDGE ( 'NONE', *, *, #213, .F. ) ;
#173 = ADVANCED_FACE ( 'NONE', ( #11, #28 ), #130, .T. ) ;
#174 = CIRCLE ( 'NONE', #102, 0.8449999999999957545 ) ;
#175 = FACE_OUTER_BOUND ( 'NONE', #62, .T. ) ;
#176 = ORIENTED_EDGE ( 'NONE', *, *, #126, .T. ) ;
#177 = CARTESIAN_POINT ( 'NONE',  ( 0.0000000000000000000, 0.0000000000000000000, 0.0000000000000000000 ) ) ;
#178 = VERTEX_POINT ( 'NONE', #198 ) ;
#179 = VERTEX_POINT ( 'NONE', #196 ) ;
#180 = CC_DESIGN_PERSON_AND_ORGANIZATION_ASSIGNMENT ( #153, #19, ( #219 ) ) ;
#181 = DIRECTION ( 'NONE',  ( 4.275831445896958607E-31, 1.000000000000000000, 1.224646799147353207E-16 ) ) ;
#182 = LOCAL_TIME ( 15, 48, 8.000000000000000000, #37 ) ;
#183 = FACE_BOUND ( 'NONE', #2, .T. ) ;
#184 = PERSON_AND_ORGANIZATION_ROLE ( 'design_supplier' ) ;
#185 = UNCERTAINTY_MEASURE_WITH_UNIT (LENGTH_MEASURE( 1.000000000000000082E-05 ), #48, 'distance_accuracy_value', 'NONE');
#186 = SECURITY_CLASSIFICATION ( '', '', #223 ) ;
#187 = DATE_AND_TIME ( #17, #170 ) ;
#188 = APPROVAL ( #54, 'UNSPECIFIED' ) ;
#189 = ORIENTED_EDGE ( 'NONE', *, *, #76, .F. ) ;
#190 = CARTESIAN_POINT ( 'NONE',  ( 4.189777606611760026E-14, 6.336485081746293381E-33, 12.00000000000000000 ) ) ;
#191 = AXIS2_PLACEMENT_3D ( 'NONE', #98, #131, #197 ) ;
#192 = ORIENTED_EDGE ( 'NONE', *, *, #69, .T. ) ;
#193 = DIRECTION ( 'NONE',  ( -4.275831445896958607E-31, -1.000000000000000000, -1.224646799147353207E-16 ) ) ;
#194 = EDGE_LOOP ( 'NONE', ( #176 ) ) ;
#195 = ADVANCED_FACE ( 'NONE', ( #12, #109 ), #129, .T. ) ;
#196 = CARTESIAN_POINT ( 'NONE',  ( 4.189777606611760657E-14, 0.8449999999999942002, 12.00000000000000178 ) ) ;
#197 = DIRECTION ( 'NONE',  ( 4.558414069555622757E-31, 1.000000000000000000, 1.283079494065695555E-16 ) ) ;
#198 = CARTESIAN_POINT ( 'NONE',  ( 1.326762908760390423E-13, 0.7999999999999963807, 38.00000000000000000 ) ) ;
#199 = CARTESIAN_POINT ( 'NONE',  ( 4.283512664236363923E-14, 0.9999999999999954481, 12.26846787517318305 ) ) ;
#200 = AXIS2_PLACEMENT_3D ( 'NONE', #177, #119, #26 ) ;
#201 = DIRECTION ( 'NONE',  ( 0.0000000000000000000, 1.000000000000000000, 0.0000000000000000000 ) ) ;
#202 = PERSON_AND_ORGANIZATION ( #78, #53 ) ;
#203 = LOCAL_TIME ( 15, 48, 8.000000000000000000, #167 ) ;
#204 = APPROVAL_DATE_TIME ( #22, #188 ) ;
#205 = CALENDAR_DATE ( 2021, 7, 10 ) ;
#206 = DATE_TIME_ROLE ( 'classification_date' ) ;
#207 = AXIS2_PLACEMENT_3D ( 'NONE', #150, #97, #82 ) ;
#208 = EDGE_CURVE ( 'NONE', #147, #147, #59, .T. ) ;
#209 = ORIENTED_EDGE ( 'NONE', *, *, #166, .F. ) ;
#210 = CLOSED_SHELL ( 'NONE', ( #220, #195, #43 ) ) ;
#211 = DIRECTION ( 'NONE',  ( -3.491481338843133355E-15, 1.224646799147353207E-16, -1.000000000000000000 ) ) ;
#212 = CARTESIAN_POINT ( 'NONE',  ( 4.189777606611760657E-14, -1.469576158976824144E-15, 12.00000000000000178 ) ) ;
#213 = EDGE_CURVE ( 'NONE', #215, #215, #84, .T. ) ;
#214 = CARTESIAN_POINT ( 'NONE',  ( 4.283512664236363923E-14, -1.502453991377296966E-15, 12.26846787517318305 ) ) ;
#215 = VERTEX_POINT ( 'NONE', #199 ) ;
#216 = AXIS2_PLACEMENT_3D ( 'NONE', #214, #125, #110 ) ;
#217 = SHAPE_DEFINITION_REPRESENTATION ( #138, #31 ) ;
#218 = PERSON_AND_ORGANIZATION ( #78, #53 ) ;
#219 = PRODUCT ( '45535', '45535', '', ( #55 ) ) ;
#220 = ADVANCED_FACE ( 'NONE', ( #99 ), #154, .T. ) ;
#221 = CONICAL_SURFACE ( 'NONE', #56, 0.8000000000000010436, 0.7853981633974516097 ) ;
#222 = PERSON_AND_ORGANIZATION ( #78, #53 ) ;
#223 = SECURITY_CLASSIFICATION_LEVEL ( 'unclassified' ) ;
ENDSEC;
END-ISO-10303-21;
