ISO-10303-21;
HEADER;
FILE_DESCRIPTION (( 'STEP AP203' ),
    '1' );
FILE_NAME ('45534.step',
    '2021-10-07T13:48:08',
    ( '' ),
    ( '' ),
    'SwSTEP 2.0',
    'SolidWorks 2019',
    '' );
FILE_SCHEMA (( 'CONFIG_CONTROL_DESIGN' ));
ENDSEC;

DATA;
#1 = CARTESIAN_POINT ( 'NONE',  ( 0.0000000000000000000, 0.0000000000000000000, 0.0000000000000000000 ) ) ;
#2 = EDGE_LOOP ( 'NONE', ( #128 ) ) ;
#3 = DIRECTION ( 'NONE',  ( 0.0000000000000000000, 1.000000000000000000, 0.0000000000000000000 ) ) ;
#4 = PERSON_AND_ORGANIZATION_ROLE ( 'classification_officer' ) ;
#5 = FACE_OUTER_BOUND ( 'NONE', #36, .T. ) ;
#6 = EDGE_LOOP ( 'NONE', ( #74 ) ) ;
#7 = PERSON_AND_ORGANIZATION_ROLE ( 'design_supplier' ) ;
#8 = PLANE ( 'NONE',  #50 ) ;
#9 = DIRECTION ( 'NONE',  ( -3.491481338843133355E-15, 1.224646799147353207E-16, -1.000000000000000000 ) ) ;
#10 = CALENDAR_DATE ( 2021, 7, 10 ) ;
#11 = MANIFOLD_SOLID_BREP ( 'Corps-Déplacer/Copier1[2]', #89 ) ;
#12 = FACE_OUTER_BOUND ( 'NONE', #121, .T. ) ;
#13 = EDGE_CURVE ( 'NONE', #63, #63, #55, .T. ) ;
#14 = PRODUCT_RELATED_PRODUCT_CATEGORY ( 'detail', '', ( #54 ) ) ;
#15 = PERSON_AND_ORGANIZATION ( #102, #68 ) ;
#16 = CARTESIAN_POINT ( 'NONE',  ( 1.741251720021787086E-15, -6.107488880754148091E-17, 0.4987143137928765069 ) ) ;
#17 = CIRCLE ( 'NONE', #158, 0.9999999999999970024 ) ;
#18 = EDGE_LOOP ( 'NONE', ( #196 ) ) ;
#19 = CYLINDRICAL_SURFACE ( 'NONE', #152, 0.8299999999999945199 ) ;
#20 = PERSON_AND_ORGANIZATION_ROLE ( 'creator' ) ;
#21 = APPLICATION_PROTOCOL_DEFINITION ( 'international standard', 'config_control_design', 1994, #210 ) ;
#22 = AXIS2_PLACEMENT_3D ( 'NONE', #1, #178, #194 ) ;
#23 = DIRECTION ( 'NONE',  ( -4.275831445896958607E-31, -1.000000000000000000, -1.224646799147353207E-16 ) ) ;
#24 = AXIS2_PLACEMENT_3D ( 'NONE', #35, #149, #172 ) ;
#25 = APPROVAL_DATE_TIME ( #79, #136 ) ;
#26 = LOCAL_TIME ( 15, 48, 8.000000000000000000, #164 ) ;
#27 = ADVANCED_FACE ( 'NONE', ( #31, #107 ), #173, .T. ) ;
#28 = DIRECTION ( 'NONE',  ( 3.491481338843133355E-15, -1.224646799147353207E-16, 1.000000000000000000 ) ) ;
#29 = AXIS2_PLACEMENT_3D ( 'NONE', #16, #28, #100 ) ;
#30 = DIRECTION ( 'NONE',  ( 0.0000000000000000000, 1.000000000000000000, 0.0000000000000000000 ) ) ;
#31 = FACE_OUTER_BOUND ( 'NONE', #214, .T. ) ;
#32 = DIRECTION ( 'NONE',  ( 3.491481338843133355E-15, -1.224646799147353207E-16, 1.000000000000000000 ) ) ;
#33 = ADVANCED_BREP_SHAPE_REPRESENTATION ( '45534', ( #85, #11, #162 ), #76 ) ;
#34 = ORIENTED_EDGE ( 'NONE', *, *, #13, .T. ) ;
#35 = CARTESIAN_POINT ( 'NONE',  ( 4.189777606611760026E-14, -1.469576158976823947E-15, 12.00000000000000000 ) ) ;
#36 = EDGE_LOOP ( 'NONE', ( #96 ) ) ;
#37 = CARTESIAN_POINT ( 'NONE',  ( 4.292583798845196436E-14, 0.9999999999999954481, 12.29444863728671855 ) ) ;
#38 = DATE_TIME_ROLE ( 'classification_date' ) ;
#39 = FACE_OUTER_BOUND ( 'NONE', #6, .T. ) ;
#40 = DIRECTION ( 'NONE',  ( -3.491481338843133355E-15, 1.224646799147353207E-16, -1.000000000000000000 ) ) ;
#41 = APPROVAL_PERSON_ORGANIZATION ( #15, #126, #205 ) ;
#42 = DATE_AND_TIME ( #183, #203 ) ;
#43 = CARTESIAN_POINT ( 'NONE',  ( 1.741251720021787480E-15, 0.8299999999999934097, 0.4987143137928766179 ) ) ;
#44 = CARTESIAN_POINT ( 'NONE',  ( 4.189777606611760026E-14, 0.8299999999999939648, 12.00000000000000000 ) ) ;
#45 = EDGE_CURVE ( 'NONE', #92, #92, #17, .T. ) ;
#46 = CARTESIAN_POINT ( 'NONE',  ( 0.0000000000000000000, 0.0000000000000000000, 0.0000000000000000000 ) ) ;
#47 = UNCERTAINTY_MEASURE_WITH_UNIT (LENGTH_MEASURE( 1.000000000000000082E-05 ), #98, 'distance_accuracy_value', 'NONE');
#48 = FACE_BOUND ( 'NONE', #165, .T. ) ;
#49 = APPROVAL_STATUS ( 'not_yet_approved' ) ;
#50 = AXIS2_PLACEMENT_3D ( 'NONE', #187, #217, #23 ) ;
#51 = APPROVAL_PERSON_ORGANIZATION ( #185, #223, #69 ) ;
#52 = DIRECTION ( 'NONE',  ( 4.640795046716267439E-31, 1.000000000000000000, 1.306267677693389101E-16 ) ) ;
#53 = ORIENTED_EDGE ( 'NONE', *, *, #45, .F. ) ;
#54 = PRODUCT ( '45534', '45534', '', ( #155 ) ) ;
#55 = CIRCLE ( 'NONE', #70, 0.8299999999999935207 ) ;
#56 = CC_DESIGN_APPROVAL ( #136, ( #80 ) ) ;
#57 = EDGE_LOOP ( 'NONE', ( #211 ) ) ;
#58 = APPLICATION_PROTOCOL_DEFINITION ( 'international standard', 'config_control_design', 1994, #191 ) ;
#59 = CC_DESIGN_PERSON_AND_ORGANIZATION_ASSIGNMENT ( #204, #4, ( #95 ) ) ;
#60 = DIRECTION ( 'NONE',  ( 0.0000000000000000000, 0.0000000000000000000, 1.000000000000000000 ) ) ;
#61 = FACE_OUTER_BOUND ( 'NONE', #57, .T. ) ;
#62 =( NAMED_UNIT ( * ) SI_UNIT ( $, .STERADIAN. ) SOLID_ANGLE_UNIT ( ) );
#63 = VERTEX_POINT ( 'NONE', #43 ) ;
#64 = FACE_BOUND ( 'NONE', #91, .T. ) ;
#65 = ADVANCED_FACE ( 'NONE', ( #5, #61 ), #19, .T. ) ;
#66 = PERSON_AND_ORGANIZATION_ROLE ( 'design_owner' ) ;
#67 = FACE_OUTER_BOUND ( 'NONE', #184, .T. ) ;
#68 = ORGANIZATION ( 'UNSPECIFIED', 'UNSPECIFIED', '' ) ;
#69 = APPROVAL_ROLE ( '' ) ;
#70 = AXIS2_PLACEMENT_3D ( 'NONE', #72, #209, #52 ) ;
#71 = PRODUCT_DEFINITION_FORMATION_WITH_SPECIFIED_SOURCE ( 'ANY', '', #54, .NOT_KNOWN. ) ;
#72 = CARTESIAN_POINT ( 'NONE',  ( 1.741251720021787086E-15, -6.107488880754148091E-17, 0.4987143137928765069 ) ) ;
#73 = EDGE_CURVE ( 'NONE', #97, #97, #132, .T. ) ;
#74 = ORIENTED_EDGE ( 'NONE', *, *, #148, .T. ) ;
#75 = CC_DESIGN_PERSON_AND_ORGANIZATION_ASSIGNMENT ( #125, #66, ( #54 ) ) ;
#76 =( GEOMETRIC_REPRESENTATION_CONTEXT ( 3 ) GLOBAL_UNCERTAINTY_ASSIGNED_CONTEXT ( ( #47 ) ) GLOBAL_UNIT_ASSIGNED_CONTEXT ( ( #98, #147, #62 ) ) REPRESENTATION_CONTEXT ( 'NONE', 'WORKASPACE' ) );
#77 = CARTESIAN_POINT ( 'NONE',  ( 4.189777606611760026E-14, 0.8299999999999939648, 12.00000000000000000 ) ) ;
#78 = ORIENTED_EDGE ( 'NONE', *, *, #73, .T. ) ;
#79 = DATE_AND_TIME ( #151, #26 ) ;
#80 = PRODUCT_DEFINITION ( 'UNKNOWN', '', #71, #143 ) ;
#81 = PERSON_AND_ORGANIZATION ( #102, #68 ) ;
#82 = LOCAL_TIME ( 15, 48, 8.000000000000000000, #170 ) ;
#83 = AXIS2_PLACEMENT_3D ( 'NONE', #87, #32, #144 ) ;
#84 = DIRECTION ( 'NONE',  ( -3.491481338843133355E-15, 1.224646799147353207E-16, -1.000000000000000000 ) ) ;
#85 = MANIFOLD_SOLID_BREP ( 'Corps-Déplacer/Copier1[1]', #222 ) ;
#86 = AXIS2_PLACEMENT_3D ( 'NONE', #124, #175, #140 ) ;
#87 = CARTESIAN_POINT ( 'NONE',  ( 4.189777606611760026E-14, 6.224003098046651871E-33, 12.00000000000000000 ) ) ;
#88 = CC_DESIGN_DATE_AND_TIME_ASSIGNMENT ( #42, #134, ( #80 ) ) ;
#89 = CLOSED_SHELL ( 'NONE', ( #104, #65, #142 ) ) ;
#90 = ORIENTED_EDGE ( 'NONE', *, *, #45, .T. ) ;
#91 = EDGE_LOOP ( 'NONE', ( #150 ) ) ;
#92 = VERTEX_POINT ( 'NONE', #37 ) ;
#93 = PERSON_AND_ORGANIZATION ( #102, #68 ) ;
#94 = AXIS2_PLACEMENT_3D ( 'NONE', #119, #84, #30 ) ;
#95 = SECURITY_CLASSIFICATION ( '', '', #133 ) ;
#96 = ORIENTED_EDGE ( 'NONE', *, *, #13, .F. ) ;
#97 = VERTEX_POINT ( 'NONE', #220 ) ;
#98 =( LENGTH_UNIT ( ) NAMED_UNIT ( * ) SI_UNIT ( .MILLI., .METRE. ) );
#99 = PLANE ( 'NONE',  #179 ) ;
#100 = DIRECTION ( 'NONE',  ( -4.640795046716267439E-31, -1.000000000000000000, -1.306267677693389101E-16 ) ) ;
#101 = PERSON_AND_ORGANIZATION ( #102, #68 ) ;
#102 = PERSON ( 'UNSPECIFIED', 'UNSPECIFIED', 'UNSPECIFIED', ('UNSPECIFIED'), ('UNSPECIFIED'), ('UNSPECIFIED') ) ;
#103 = APPROVAL_STATUS ( 'not_yet_approved' ) ;
#104 = ADVANCED_FACE ( 'NONE', ( #108 ), #141, .T. ) ;
#105 = DATE_AND_TIME ( #138, #189 ) ;
#106 = EDGE_CURVE ( 'NONE', #137, #137, #123, .T. ) ;
#107 = FACE_OUTER_BOUND ( 'NONE', #2, .T. ) ;
#108 = FACE_OUTER_BOUND ( 'NONE', #197, .T. ) ;
#109 = ADVANCED_FACE ( 'NONE', ( #12, #48 ), #215, .T. ) ;
#110 = ORIENTED_EDGE ( 'NONE', *, *, #106, .F. ) ;
#111 = APPROVAL_STATUS ( 'not_yet_approved' ) ;
#112 = APPROVAL_ROLE ( '' ) ;
#113 = DIRECTION ( 'NONE',  ( 4.275831445896958607E-31, 1.000000000000000000, 1.224646799147353207E-16 ) ) ;
#114 = CALENDAR_DATE ( 2021, 7, 10 ) ;
#115 = COORDINATED_UNIVERSAL_TIME_OFFSET ( 1, 0, .AHEAD. ) ;
#116 = CC_DESIGN_APPROVAL ( #223, ( #95 ) ) ;
#117 = DIRECTION ( 'NONE',  ( 0.0000000000000000000, 1.000000000000000000, 0.0000000000000000000 ) ) ;
#118 = CIRCLE ( 'NONE', #24, 0.8299999999999954081 ) ;
#119 = CARTESIAN_POINT ( 'NONE',  ( 1.326762908760390423E-13, -4.653657836759941941E-15, 38.00000000000000000 ) ) ;
#120 = APPROVAL_DATE_TIME ( #105, #223 ) ;
#121 = EDGE_LOOP ( 'NONE', ( #110 ) ) ;
#122 = AXIS2_PLACEMENT_3D ( 'NONE', #200, #181, #177 ) ;
#123 = CIRCLE ( 'NONE', #156, 1.000000000000001110 ) ;
#124 = CARTESIAN_POINT ( 'NONE',  ( 1.326762908760390423E-13, -4.653657836759941941E-15, 38.00000000000000000 ) ) ;
#125 = PERSON_AND_ORGANIZATION ( #102, #68 ) ;
#126 = APPROVAL ( #103, 'UNSPECIFIED' ) ;
#127 = CARTESIAN_POINT ( 'NONE',  ( 1.319779946082704535E-13, -4.629164900776995227E-15, 37.79999999999999716 ) ) ;
#128 = ORIENTED_EDGE ( 'NONE', *, *, #106, .T. ) ;
#129 = COORDINATED_UNIVERSAL_TIME_OFFSET ( 1, 0, .AHEAD. ) ;
#130 = DIRECTION ( 'NONE',  ( 4.275831445896958607E-31, 1.000000000000000000, 1.224646799147353207E-16 ) ) ;
#131 = VERTEX_POINT ( 'NONE', #44 ) ;
#132 = CIRCLE ( 'NONE', #86, 0.8000000000000010436 ) ;
#133 = SECURITY_CLASSIFICATION_LEVEL ( 'unclassified' ) ;
#134 = DATE_TIME_ROLE ( 'creation_date' ) ;
#135 = CC_DESIGN_PERSON_AND_ORGANIZATION_ASSIGNMENT ( #81, #7, ( #71 ) ) ;
#136 = APPROVAL ( #111, 'UNSPECIFIED' ) ;
#137 = VERTEX_POINT ( 'NONE', #213 ) ;
#138 = CALENDAR_DATE ( 2021, 7, 10 ) ;
#139 = PLANE ( 'NONE',  #83 ) ;
#140 = DIRECTION ( 'NONE',  ( 0.0000000000000000000, 1.000000000000000000, 0.0000000000000000000 ) ) ;
#141 = CONICAL_SURFACE ( 'NONE', #29, 0.8299999999999935207, 1.029744258676649871 ) ;
#142 = ADVANCED_FACE ( 'NONE', ( #67 ), #139, .T. ) ;
#143 = DESIGN_CONTEXT ( 'detailed design', #210, 'design' ) ;
#144 = DIRECTION ( 'NONE',  ( -4.275831445896958607E-31, -1.000000000000000000, -1.224646799147353207E-16 ) ) ;
#145 = AXIS2_PLACEMENT_3D ( 'NONE', #176, #161, #171 ) ;
#146 = ORIENTED_EDGE ( 'NONE', *, *, #160, .F. ) ;
#147 =( NAMED_UNIT ( * ) PLANE_ANGLE_UNIT ( ) SI_UNIT ( $, .RADIAN. ) );
#148 = EDGE_CURVE ( 'NONE', #131, #131, #118, .T. ) ;
#149 = DIRECTION ( 'NONE',  ( -3.491481338843133355E-15, 1.224646799147353207E-16, -1.000000000000000000 ) ) ;
#150 = ORIENTED_EDGE ( 'NONE', *, *, #148, .F. ) ;
#151 = CALENDAR_DATE ( 2021, 7, 10 ) ;
#152 = AXIS2_PLACEMENT_3D ( 'NONE', #201, #40, #113 ) ;
#153 = LOCAL_TIME ( 15, 48, 8.000000000000000000, #115 ) ;
#154 = CC_DESIGN_DATE_AND_TIME_ASSIGNMENT ( #199, #38, ( #95 ) ) ;
#155 = MECHANICAL_CONTEXT ( 'NONE', #191, 'mechanical' ) ;
#156 = AXIS2_PLACEMENT_3D ( 'NONE', #127, #208, #117 ) ;
#157 = FACE_OUTER_BOUND ( 'NONE', #180, .T. ) ;
#158 = AXIS2_PLACEMENT_3D ( 'NONE', #159, #193, #3 ) ;
#159 = CARTESIAN_POINT ( 'NONE',  ( 4.292583798845196436E-14, -1.505635717093471704E-15, 12.29444863728671855 ) ) ;
#160 = EDGE_CURVE ( 'NONE', #198, #198, #195, .T. ) ;
#161 = DIRECTION ( 'NONE',  ( -3.491481338843133355E-15, 1.224646799147353207E-16, -1.000000000000000000 ) ) ;
#162 = AXIS2_PLACEMENT_3D ( 'NONE', #46, #60, #202 ) ;
#163 = ADVANCED_FACE ( 'NONE', ( #39 ), #8, .F. ) ;
#164 = COORDINATED_UNIVERSAL_TIME_OFFSET ( 1, 0, .AHEAD. ) ;
#165 = EDGE_LOOP ( 'NONE', ( #78 ) ) ;
#166 = PERSON_AND_ORGANIZATION_ROLE ( 'creator' ) ;
#167 = APPROVAL_DATE_TIME ( #188, #126 ) ;
#168 = CONICAL_SURFACE ( 'NONE', #122, 0.9999999999999970024, 0.5235987755982906000 ) ;
#169 = CARTESIAN_POINT ( 'NONE',  ( 1.326762908760390423E-13, 5.999039130647368167E-33, 38.00000000000000000 ) ) ;
#170 = COORDINATED_UNIVERSAL_TIME_OFFSET ( 1, 0, .AHEAD. ) ;
#171 = DIRECTION ( 'NONE',  ( 0.0000000000000000000, 1.000000000000000000, 0.0000000000000000000 ) ) ;
#172 = DIRECTION ( 'NONE',  ( 0.0000000000000000000, 1.000000000000000000, 0.0000000000000000000 ) ) ;
#173 = CYLINDRICAL_SURFACE ( 'NONE', #22, 0.9999999999999991118 ) ;
#174 = CC_DESIGN_APPROVAL ( #126, ( #71 ) ) ;
#175 = DIRECTION ( 'NONE',  ( -3.491481338843133355E-15, 1.224646799147353207E-16, -1.000000000000000000 ) ) ;
#176 = CARTESIAN_POINT ( 'NONE',  ( 4.189777606611760026E-14, -1.469576158976823947E-15, 12.00000000000000000 ) ) ;
#177 = DIRECTION ( 'NONE',  ( 0.0000000000000000000, -1.000000000000000000, 0.0000000000000000000 ) ) ;
#178 = DIRECTION ( 'NONE',  ( -3.491481338843133355E-15, 1.224646799147353207E-16, -1.000000000000000000 ) ) ;
#179 = AXIS2_PLACEMENT_3D ( 'NONE', #169, #9, #130 ) ;
#180 = EDGE_LOOP ( 'NONE', ( #90 ) ) ;
#181 = DIRECTION ( 'NONE',  ( 3.491481338843133355E-15, -1.224646799147353207E-16, 1.000000000000000000 ) ) ;
#182 = CC_DESIGN_PERSON_AND_ORGANIZATION_ASSIGNMENT ( #93, #20, ( #71 ) ) ;
#183 = CALENDAR_DATE ( 2021, 7, 10 ) ;
#184 = EDGE_LOOP ( 'NONE', ( #146 ) ) ;
#185 = PERSON_AND_ORGANIZATION ( #102, #68 ) ;
#186 = FACE_OUTER_BOUND ( 'NONE', #18, .T. ) ;
#187 = CARTESIAN_POINT ( 'NONE',  ( 4.189777606611760026E-14, 6.224003098046651871E-33, 12.00000000000000000 ) ) ;
#188 = DATE_AND_TIME ( #114, #153 ) ;
#189 = LOCAL_TIME ( 15, 48, 8.000000000000000000, #221 ) ;
#190 = SHAPE_DEFINITION_REPRESENTATION ( #212, #33 ) ;
#191 = APPLICATION_CONTEXT ( 'configuration controlled 3d designs of mechanical parts and assemblies' ) ;
#192 = ADVANCED_FACE ( 'NONE', ( #186 ), #99, .F. ) ;
#193 = DIRECTION ( 'NONE',  ( -3.491481338843133355E-15, 1.224646799147353207E-16, -1.000000000000000000 ) ) ;
#194 = DIRECTION ( 'NONE',  ( 4.275831445896957731E-31, 1.000000000000000000, 1.224646799147353207E-16 ) ) ;
#195 = CIRCLE ( 'NONE', #145, 0.8299999999999954081 ) ;
#196 = ORIENTED_EDGE ( 'NONE', *, *, #73, .F. ) ;
#197 = EDGE_LOOP ( 'NONE', ( #34 ) ) ;
#198 = VERTEX_POINT ( 'NONE', #77 ) ;
#199 = DATE_AND_TIME ( #10, #82 ) ;
#200 = CARTESIAN_POINT ( 'NONE',  ( 4.292583798845196436E-14, -1.505635717093471704E-15, 12.29444863728671855 ) ) ;
#201 = CARTESIAN_POINT ( 'NONE',  ( 0.0000000000000000000, 0.0000000000000000000, 0.0000000000000000000 ) ) ;
#202 = DIRECTION ( 'NONE',  ( 1.000000000000000000, 0.0000000000000000000, 0.0000000000000000000 ) ) ;
#203 = LOCAL_TIME ( 15, 48, 8.000000000000000000, #129 ) ;
#204 = PERSON_AND_ORGANIZATION ( #102, #68 ) ;
#205 = APPROVAL_ROLE ( '' ) ;
#206 = CC_DESIGN_SECURITY_CLASSIFICATION ( #95, ( #71 ) ) ;
#207 = ADVANCED_FACE ( 'NONE', ( #64, #157 ), #168, .T. ) ;
#208 = DIRECTION ( 'NONE',  ( -3.491481338843133355E-15, 1.224646799147353207E-16, -1.000000000000000000 ) ) ;
#209 = DIRECTION ( 'NONE',  ( -3.491481338843133355E-15, 1.224646799147353207E-16, -1.000000000000000000 ) ) ;
#210 = APPLICATION_CONTEXT ( 'configuration controlled 3d designs of mechanical parts and assemblies' ) ;
#211 = ORIENTED_EDGE ( 'NONE', *, *, #160, .T. ) ;
#212 = PRODUCT_DEFINITION_SHAPE ( 'NONE', 'NONE',  #80 ) ;
#213 = CARTESIAN_POINT ( 'NONE',  ( 1.319779946082704535E-13, 0.9999999999999965583, 37.79999999999999716 ) ) ;
#214 = EDGE_LOOP ( 'NONE', ( #53 ) ) ;
#215 = CONICAL_SURFACE ( 'NONE', #94, 0.8000000000000010436, 0.7853981633974516097 ) ;
#216 = PERSON_AND_ORGANIZATION ( #102, #68 ) ;
#217 = DIRECTION ( 'NONE',  ( 3.491481338843133355E-15, -1.224646799147353207E-16, 1.000000000000000000 ) ) ;
#218 = CC_DESIGN_PERSON_AND_ORGANIZATION_ASSIGNMENT ( #101, #166, ( #80 ) ) ;
#219 = APPROVAL_PERSON_ORGANIZATION ( #216, #136, #112 ) ;
#220 = CARTESIAN_POINT ( 'NONE',  ( 1.326762908760390423E-13, 0.7999999999999963807, 38.00000000000000000 ) ) ;
#221 = COORDINATED_UNIVERSAL_TIME_OFFSET ( 1, 0, .AHEAD. ) ;
#222 = CLOSED_SHELL ( 'NONE', ( #163, #207, #27, #109, #192 ) ) ;
#223 = APPROVAL ( #49, 'UNSPECIFIED' ) ;
ENDSEC;
END-ISO-10303-21;
