ISO-10303-21;
HEADER;
FILE_DESCRIPTION (( 'STEP AP203' ),
    '1' );
FILE_NAME ('45533.step',
    '2021-10-07T13:48:07',
    ( '' ),
    ( '' ),
    'SwSTEP 2.0',
    'SolidWorks 2019',
    '' );
FILE_SCHEMA (( 'CONFIG_CONTROL_DESIGN' ));
ENDSEC;

DATA;
#1 = CALENDAR_DATE ( 2021, 7, 10 ) ;
#2 = DIRECTION ( 'NONE',  ( 1.000000000000000000, 0.0000000000000000000, 0.0000000000000000000 ) ) ;
#3 = CIRCLE ( 'NONE', #152, 0.7949999999999936007 ) ;
#4 = LOCAL_TIME ( 15, 48, 7.000000000000000000, #89 ) ;
#5 = PERSON_AND_ORGANIZATION_ROLE ( 'creator' ) ;
#6 = CARTESIAN_POINT ( 'NONE',  ( 1.326762908760390423E-13, 0.7999999999999963807, 38.00000000000000000 ) ) ;
#7 = EDGE_CURVE ( 'NONE', #20, #20, #91, .T. ) ;
#8 = DATE_AND_TIME ( #1, #217 ) ;
#9 = PERSON_AND_ORGANIZATION ( #202, #204 ) ;
#10 = ORIENTED_EDGE ( 'NONE', *, *, #214, .F. ) ;
#11 = AXIS2_PLACEMENT_3D ( 'NONE', #149, #216, #63 ) ;
#12 = MANIFOLD_SOLID_BREP ( 'Corps-Déplacer/Copier1[1]', #92 ) ;
#13 = SHAPE_DEFINITION_REPRESENTATION ( #68, #160 ) ;
#14 = UNCERTAINTY_MEASURE_WITH_UNIT (LENGTH_MEASURE( 1.000000000000000082E-05 ), #199, 'distance_accuracy_value', 'NONE');
#15 = CARTESIAN_POINT ( 'NONE',  ( 4.313749779599138966E-14, -1.513059743764546027E-15, 12.35507041555162822 ) ) ;
#16 = ADVANCED_FACE ( 'NONE', ( #77 ), #97, .T. ) ;
#17 = FACE_BOUND ( 'NONE', #58, .T. ) ;
#18 = CIRCLE ( 'NONE', #129, 0.7949999999999951550 ) ;
#19 = FACE_OUTER_BOUND ( 'NONE', #95, .T. ) ;
#20 = VERTEX_POINT ( 'NONE', #36 ) ;
#21 = DIRECTION ( 'NONE',  ( -3.491481338843133355E-15, 1.224646799147353207E-16, -1.000000000000000000 ) ) ;
#22 = EDGE_LOOP ( 'NONE', ( #57 ) ) ;
#23 = DATE_TIME_ROLE ( 'classification_date' ) ;
#24 = CIRCLE ( 'NONE', #136, 0.9999999999999970024 ) ;
#25 = EDGE_LOOP ( 'NONE', ( #145 ) ) ;
#26 = SECURITY_CLASSIFICATION_LEVEL ( 'unclassified' ) ;
#27 = APPROVAL_ROLE ( '' ) ;
#28 = CC_DESIGN_PERSON_AND_ORGANIZATION_ASSIGNMENT ( #200, #5, ( #166 ) ) ;
#29 = AXIS2_PLACEMENT_3D ( 'NONE', #174, #203, #117 ) ;
#30 = APPROVAL_PERSON_ORGANIZATION ( #172, #182, #156 ) ;
#31 = DIRECTION ( 'NONE',  ( 0.0000000000000000000, 1.000000000000000000, 0.0000000000000000000 ) ) ;
#32 = CALENDAR_DATE ( 2021, 7, 10 ) ;
#33 = CARTESIAN_POINT ( 'NONE',  ( 1.326762908760390423E-13, 5.999039130647368167E-33, 38.00000000000000000 ) ) ;
#34 = DIRECTION ( 'NONE',  ( -3.491481338843133355E-15, 1.224646799147353207E-16, -1.000000000000000000 ) ) ;
#35 = DIRECTION ( 'NONE',  ( -3.491481338843133355E-15, 1.224646799147353207E-16, -1.000000000000000000 ) ) ;
#36 = CARTESIAN_POINT ( 'NONE',  ( 1.319779946082704535E-13, 0.9999999999999965583, 37.79999999999999716 ) ) ;
#37 = AXIS2_PLACEMENT_3D ( 'NONE', #207, #197, #41 ) ;
#38 = FACE_OUTER_BOUND ( 'NONE', #71, .T. ) ;
#39 = CC_DESIGN_DATE_AND_TIME_ASSIGNMENT ( #90, #126, ( #96 ) ) ;
#40 = CARTESIAN_POINT ( 'NONE',  ( 4.189777606611760026E-14, 0.7949999999999936007, 12.00000000000000000 ) ) ;
#41 = DIRECTION ( 'NONE',  ( -4.275831445896958607E-31, -1.000000000000000000, -1.224646799147353207E-16 ) ) ;
#42 = ORIENTED_EDGE ( 'NONE', *, *, #70, .F. ) ;
#43 = CALENDAR_DATE ( 2021, 7, 10 ) ;
#44 = CLOSED_SHELL ( 'NONE', ( #16, #177, #219 ) ) ;
#45 = CC_DESIGN_SECURITY_CLASSIFICATION ( #147, ( #166 ) ) ;
#46 = PERSON_AND_ORGANIZATION ( #202, #204 ) ;
#47 = DIRECTION ( 'NONE',  ( 0.0000000000000000000, 0.0000000000000000000, 1.000000000000000000 ) ) ;
#48 = CARTESIAN_POINT ( 'NONE',  ( 1.319779946082704535E-13, -4.629164900776995227E-15, 37.79999999999999716 ) ) ;
#49 = ORIENTED_EDGE ( 'NONE', *, *, #7, .F. ) ;
#50 = CYLINDRICAL_SURFACE ( 'NONE', #93, 0.9999999999999991118 ) ;
#51 = AXIS2_PLACEMENT_3D ( 'NONE', #15, #67, #131 ) ;
#52 = DIRECTION ( 'NONE',  ( 4.275831445896957731E-31, 1.000000000000000000, 1.224646799147353207E-16 ) ) ;
#53 = FACE_OUTER_BOUND ( 'NONE', #187, .T. ) ;
#54 = APPLICATION_CONTEXT ( 'configuration controlled 3d designs of mechanical parts and assemblies' ) ;
#55 = APPLICATION_PROTOCOL_DEFINITION ( 'international standard', 'config_control_design', 1994, #84 ) ;
#56 = VERTEX_POINT ( 'NONE', #86 ) ;
#57 = ORIENTED_EDGE ( 'NONE', *, *, #99, .F. ) ;
#58 = EDGE_LOOP ( 'NONE', ( #10 ) ) ;
#59 = APPROVAL_DATE_TIME ( #8, #146 ) ;
#60 = VERTEX_POINT ( 'NONE', #6 ) ;
#61 = EDGE_LOOP ( 'NONE', ( #211 ) ) ;
#62 = APPROVAL ( #88, 'UNSPECIFIED' ) ;
#63 = DIRECTION ( 'NONE',  ( -4.845106778332707751E-31, -1.000000000000000000, -1.363776317591840437E-16 ) ) ;
#64 = FACE_BOUND ( 'NONE', #25, .T. ) ;
#65 = FACE_OUTER_BOUND ( 'NONE', #61, .T. ) ;
#66 = CC_DESIGN_APPROVAL ( #146, ( #166 ) ) ;
#67 = DIRECTION ( 'NONE',  ( 3.491481338843133355E-15, -1.224646799147353207E-16, 1.000000000000000000 ) ) ;
#68 = PRODUCT_DEFINITION_SHAPE ( 'NONE', 'NONE',  #96 ) ;
#69 = DATE_AND_TIME ( #164, #4 ) ;
#70 = EDGE_CURVE ( 'NONE', #56, #56, #3, .T. ) ;
#71 = EDGE_LOOP ( 'NONE', ( #128 ) ) ;
#72 = DIRECTION ( 'NONE',  ( 0.0000000000000000000, 1.000000000000000000, 0.0000000000000000000 ) ) ;
#73 = EDGE_LOOP ( 'NONE', ( #42 ) ) ;
#74 = AXIS2_PLACEMENT_3D ( 'NONE', #48, #110, #31 ) ;
#75 = AXIS2_PLACEMENT_3D ( 'NONE', #137, #184, #72 ) ;
#76 = CC_DESIGN_PERSON_AND_ORGANIZATION_ASSIGNMENT ( #209, #201, ( #96 ) ) ;
#77 = FACE_OUTER_BOUND ( 'NONE', #162, .T. ) ;
#78 = CYLINDRICAL_SURFACE ( 'NONE', #81, 0.7949999999999943778 ) ;
#79 = FACE_OUTER_BOUND ( 'NONE', #127, .T. ) ;
#80 = FACE_OUTER_BOUND ( 'NONE', #73, .T. ) ;
#81 = AXIS2_PLACEMENT_3D ( 'NONE', #153, #150, #113 ) ;
#82 = DIRECTION ( 'NONE',  ( 0.0000000000000000000, 1.000000000000000000, 0.0000000000000000000 ) ) ;
#83 = CARTESIAN_POINT ( 'NONE',  ( 0.0000000000000000000, 0.0000000000000000000, 0.0000000000000000000 ) ) ;
#84 = APPLICATION_CONTEXT ( 'configuration controlled 3d designs of mechanical parts and assemblies' ) ;
#85 = MECHANICAL_CONTEXT ( 'NONE', #84, 'mechanical' ) ;
#86 = CARTESIAN_POINT ( 'NONE',  ( 1.667825442671470709E-15, 0.7949999999999934897, 0.4776841921269118219 ) ) ;
#87 = CIRCLE ( 'NONE', #165, 0.8000000000000010436 ) ;
#88 = APPROVAL_STATUS ( 'not_yet_approved' ) ;
#89 = COORDINATED_UNIVERSAL_TIME_OFFSET ( 1, 0, .AHEAD. ) ;
#90 = DATE_AND_TIME ( #32, #208 ) ;
#91 = CIRCLE ( 'NONE', #74, 1.000000000000001110 ) ;
#92 = CLOSED_SHELL ( 'NONE', ( #115, #138, #109, #94, #189 ) ) ;
#93 = AXIS2_PLACEMENT_3D ( 'NONE', #157, #34, #52 ) ;
#94 = ADVANCED_FACE ( 'NONE', ( #19, #64 ), #221, .T. ) ;
#95 = EDGE_LOOP ( 'NONE', ( #49 ) ) ;
#96 = PRODUCT_DEFINITION ( 'UNKNOWN', '', #166, #123 ) ;
#97 = CONICAL_SURFACE ( 'NONE', #11, 0.7949999999999936007, 1.029744258676649871 ) ;
#98 = CARTESIAN_POINT ( 'NONE',  ( 4.189777606611760026E-14, 5.961545136080824874E-33, 12.00000000000000000 ) ) ;
#99 = EDGE_CURVE ( 'NONE', #60, #60, #87, .T. ) ;
#100 = DIRECTION ( 'NONE',  ( -3.491481338843133355E-15, 1.224646799147353207E-16, -1.000000000000000000 ) ) ;
#101 = CARTESIAN_POINT ( 'NONE',  ( 1.326762908760390423E-13, -4.653657836759941941E-15, 38.00000000000000000 ) ) ;
#102 = PRODUCT_RELATED_PRODUCT_CATEGORY ( 'detail', '', ( #191 ) ) ;
#103 = CALENDAR_DATE ( 2021, 7, 10 ) ;
#104 = ORIENTED_EDGE ( 'NONE', *, *, #178, .T. ) ;
#105 = LOCAL_TIME ( 15, 48, 7.000000000000000000, #169 ) ;
#106 = PERSON_AND_ORGANIZATION_ROLE ( 'design_supplier' ) ;
#107 = EDGE_CURVE ( 'NONE', #142, #142, #18, .T. ) ;
#108 = PERSON_AND_ORGANIZATION_ROLE ( 'design_owner' ) ;
#109 = ADVANCED_FACE ( 'NONE', ( #53, #65 ), #50, .T. ) ;
#110 = DIRECTION ( 'NONE',  ( -3.491481338843133355E-15, 1.224646799147353207E-16, -1.000000000000000000 ) ) ;
#111 = DATE_AND_TIME ( #43, #105 ) ;
#112 = EDGE_LOOP ( 'NONE', ( #104 ) ) ;
#113 = DIRECTION ( 'NONE',  ( 4.275831445896958607E-31, 1.000000000000000000, 1.224646799147353207E-16 ) ) ;
#114 = AXIS2_PLACEMENT_3D ( 'NONE', #83, #47, #2 ) ;
#115 = ADVANCED_FACE ( 'NONE', ( #116 ), #132, .F. ) ;
#116 = FACE_OUTER_BOUND ( 'NONE', #168, .T. ) ;
#117 = DIRECTION ( 'NONE',  ( 0.0000000000000000000, 1.000000000000000000, 0.0000000000000000000 ) ) ;
#118 = AXIS2_PLACEMENT_3D ( 'NONE', #98, #205, #192 ) ;
#119 = CONICAL_SURFACE ( 'NONE', #51, 0.9999999999999970024, 0.5235987755982921543 ) ;
#120 = CC_DESIGN_PERSON_AND_ORGANIZATION_ASSIGNMENT ( #124, #175, ( #147 ) ) ;
#121 = PLANE ( 'NONE',  #37 ) ;
#122 = AXIS2_PLACEMENT_3D ( 'NONE', #33, #21, #125 ) ;
#123 = DESIGN_CONTEXT ( 'detailed design', #54, 'design' ) ;
#124 = PERSON_AND_ORGANIZATION ( #202, #204 ) ;
#125 = DIRECTION ( 'NONE',  ( 4.275831445896958607E-31, 1.000000000000000000, 1.224646799147353207E-16 ) ) ;
#126 = DATE_TIME_ROLE ( 'creation_date' ) ;
#127 = EDGE_LOOP ( 'NONE', ( #215 ) ) ;
#128 = ORIENTED_EDGE ( 'NONE', *, *, #107, .F. ) ;
#129 = AXIS2_PLACEMENT_3D ( 'NONE', #190, #220, #170 ) ;
#130 = CARTESIAN_POINT ( 'NONE',  ( 1.667825442671470315E-15, -5.849944168915117802E-17, 0.4776841921269117663 ) ) ;
#131 = DIRECTION ( 'NONE',  ( 0.0000000000000000000, -1.000000000000000000, 0.0000000000000000000 ) ) ;
#132 = PLANE ( 'NONE',  #118 ) ;
#133 = CARTESIAN_POINT ( 'NONE',  ( 4.313749779599138966E-14, -1.513059743764546027E-15, 12.35507041555162822 ) ) ;
#134 = COORDINATED_UNIVERSAL_TIME_OFFSET ( 1, 0, .AHEAD. ) ;
#135 = CC_DESIGN_PERSON_AND_ORGANIZATION_ASSIGNMENT ( #9, #108, ( #191 ) ) ;
#136 = AXIS2_PLACEMENT_3D ( 'NONE', #133, #35, #206 ) ;
#137 = CARTESIAN_POINT ( 'NONE',  ( 4.189777606611760026E-14, -1.469576158976823947E-15, 12.00000000000000000 ) ) ;
#138 = ADVANCED_FACE ( 'NONE', ( #17, #222 ), #119, .T. ) ;
#139 = PERSON_AND_ORGANIZATION ( #202, #204 ) ;
#140 = CC_DESIGN_APPROVAL ( #182, ( #147 ) ) ;
#141 = ORIENTED_EDGE ( 'NONE', *, *, #70, .T. ) ;
#142 = VERTEX_POINT ( 'NONE', #159 ) ;
#143 = ORIENTED_EDGE ( 'NONE', *, *, #178, .F. ) ;
#144 = VERTEX_POINT ( 'NONE', #163 ) ;
#145 = ORIENTED_EDGE ( 'NONE', *, *, #99, .T. ) ;
#146 = APPROVAL ( #179, 'UNSPECIFIED' ) ;
#147 = SECURITY_CLASSIFICATION ( '', '', #26 ) ;
#148 = APPROVAL_DATE_TIME ( #111, #182 ) ;
#149 = CARTESIAN_POINT ( 'NONE',  ( 1.667825442671470315E-15, -5.849944168915117802E-17, 0.4776841921269117663 ) ) ;
#150 = DIRECTION ( 'NONE',  ( -3.491481338843133355E-15, 1.224646799147353207E-16, -1.000000000000000000 ) ) ;
#151 = DIRECTION ( 'NONE',  ( -3.491481338843133355E-15, 1.224646799147353207E-16, -1.000000000000000000 ) ) ;
#152 = AXIS2_PLACEMENT_3D ( 'NONE', #130, #100, #171 ) ;
#153 = CARTESIAN_POINT ( 'NONE',  ( 0.0000000000000000000, 0.0000000000000000000, 0.0000000000000000000 ) ) ;
#154 = PERSON_AND_ORGANIZATION ( #202, #204 ) ;
#155 = COORDINATED_UNIVERSAL_TIME_OFFSET ( 1, 0, .AHEAD. ) ;
#156 = APPROVAL_ROLE ( '' ) ;
#157 = CARTESIAN_POINT ( 'NONE',  ( 0.0000000000000000000, 0.0000000000000000000, 0.0000000000000000000 ) ) ;
#158 = MANIFOLD_SOLID_BREP ( 'Corps-Déplacer/Copier1[2]', #44 ) ;
#159 = CARTESIAN_POINT ( 'NONE',  ( 4.189777606611760026E-14, 0.7949999999999936007, 12.00000000000000000 ) ) ;
#160 = ADVANCED_BREP_SHAPE_REPRESENTATION ( '45533', ( #12, #158, #114 ), #161 ) ;
#161 =( GEOMETRIC_REPRESENTATION_CONTEXT ( 3 ) GLOBAL_UNCERTAINTY_ASSIGNED_CONTEXT ( ( #14 ) ) GLOBAL_UNIT_ASSIGNED_CONTEXT ( ( #199, #210, #212 ) ) REPRESENTATION_CONTEXT ( 'NONE', 'WORKASPACE' ) );
#162 = EDGE_LOOP ( 'NONE', ( #141 ) ) ;
#163 = CARTESIAN_POINT ( 'NONE',  ( 4.313749779599138966E-14, 0.9999999999999954481, 12.35507041555162822 ) ) ;
#164 = CALENDAR_DATE ( 2021, 7, 10 ) ;
#165 = AXIS2_PLACEMENT_3D ( 'NONE', #101, #151, #82 ) ;
#166 = PRODUCT_DEFINITION_FORMATION_WITH_SPECIFIED_SOURCE ( 'ANY', '', #191, .NOT_KNOWN. ) ;
#167 = ORIENTED_EDGE ( 'NONE', *, *, #214, .T. ) ;
#168 = EDGE_LOOP ( 'NONE', ( #167 ) ) ;
#169 = COORDINATED_UNIVERSAL_TIME_OFFSET ( 1, 0, .AHEAD. ) ;
#170 = DIRECTION ( 'NONE',  ( 0.0000000000000000000, 1.000000000000000000, 0.0000000000000000000 ) ) ;
#171 = DIRECTION ( 'NONE',  ( 4.845106778332707751E-31, 1.000000000000000000, 1.363776317591840437E-16 ) ) ;
#172 = PERSON_AND_ORGANIZATION ( #202, #204 ) ;
#173 = CIRCLE ( 'NONE', #75, 0.7949999999999951550 ) ;
#174 = CARTESIAN_POINT ( 'NONE',  ( 1.326762908760390423E-13, -4.653657836759941941E-15, 38.00000000000000000 ) ) ;
#175 = PERSON_AND_ORGANIZATION_ROLE ( 'classification_officer' ) ;
#176 = APPROVAL_STATUS ( 'not_yet_approved' ) ;
#177 = ADVANCED_FACE ( 'NONE', ( #80, #79 ), #78, .T. ) ;
#178 = EDGE_CURVE ( 'NONE', #144, #144, #24, .T. ) ;
#179 = APPROVAL_STATUS ( 'not_yet_approved' ) ;
#180 = APPROVAL_PERSON_ORGANIZATION ( #154, #146, #195 ) ;
#181 = APPROVAL_DATE_TIME ( #69, #62 ) ;
#182 = APPROVAL ( #176, 'UNSPECIFIED' ) ;
#183 = APPLICATION_PROTOCOL_DEFINITION ( 'international standard', 'config_control_design', 1994, #54 ) ;
#184 = DIRECTION ( 'NONE',  ( -3.491481338843133355E-15, 1.224646799147353207E-16, -1.000000000000000000 ) ) ;
#185 = APPROVAL_PERSON_ORGANIZATION ( #139, #62, #27 ) ;
#186 = CC_DESIGN_DATE_AND_TIME_ASSIGNMENT ( #198, #23, ( #147 ) ) ;
#187 = EDGE_LOOP ( 'NONE', ( #143 ) ) ;
#188 = PLANE ( 'NONE',  #122 ) ;
#189 = ADVANCED_FACE ( 'NONE', ( #218 ), #188, .F. ) ;
#190 = CARTESIAN_POINT ( 'NONE',  ( 4.189777606611760026E-14, -1.469576158976823947E-15, 12.00000000000000000 ) ) ;
#191 = PRODUCT ( '45533', '45533', '', ( #85 ) ) ;
#192 = DIRECTION ( 'NONE',  ( -4.275831445896958607E-31, -1.000000000000000000, -1.224646799147353207E-16 ) ) ;
#193 = COORDINATED_UNIVERSAL_TIME_OFFSET ( 1, 0, .AHEAD. ) ;
#194 = VERTEX_POINT ( 'NONE', #40 ) ;
#195 = APPROVAL_ROLE ( '' ) ;
#196 = LOCAL_TIME ( 15, 48, 7.000000000000000000, #134 ) ;
#197 = DIRECTION ( 'NONE',  ( 3.491481338843133355E-15, -1.224646799147353207E-16, 1.000000000000000000 ) ) ;
#198 = DATE_AND_TIME ( #103, #196 ) ;
#199 =( LENGTH_UNIT ( ) NAMED_UNIT ( * ) SI_UNIT ( .MILLI., .METRE. ) );
#200 = PERSON_AND_ORGANIZATION ( #202, #204 ) ;
#201 = PERSON_AND_ORGANIZATION_ROLE ( 'creator' ) ;
#202 = PERSON ( 'UNSPECIFIED', 'UNSPECIFIED', 'UNSPECIFIED', ('UNSPECIFIED'), ('UNSPECIFIED'), ('UNSPECIFIED') ) ;
#203 = DIRECTION ( 'NONE',  ( -3.491481338843133355E-15, 1.224646799147353207E-16, -1.000000000000000000 ) ) ;
#204 = ORGANIZATION ( 'UNSPECIFIED', 'UNSPECIFIED', '' ) ;
#205 = DIRECTION ( 'NONE',  ( 3.491481338843133355E-15, -1.224646799147353207E-16, 1.000000000000000000 ) ) ;
#206 = DIRECTION ( 'NONE',  ( 0.0000000000000000000, 1.000000000000000000, 0.0000000000000000000 ) ) ;
#207 = CARTESIAN_POINT ( 'NONE',  ( 4.189777606611760026E-14, 5.961545136080824874E-33, 12.00000000000000000 ) ) ;
#208 = LOCAL_TIME ( 15, 48, 7.000000000000000000, #155 ) ;
#209 = PERSON_AND_ORGANIZATION ( #202, #204 ) ;
#210 =( NAMED_UNIT ( * ) PLANE_ANGLE_UNIT ( ) SI_UNIT ( $, .RADIAN. ) );
#211 = ORIENTED_EDGE ( 'NONE', *, *, #7, .T. ) ;
#212 =( NAMED_UNIT ( * ) SI_UNIT ( $, .STERADIAN. ) SOLID_ANGLE_UNIT ( ) );
#213 = CC_DESIGN_APPROVAL ( #62, ( #96 ) ) ;
#214 = EDGE_CURVE ( 'NONE', #194, #194, #173, .T. ) ;
#215 = ORIENTED_EDGE ( 'NONE', *, *, #107, .T. ) ;
#216 = DIRECTION ( 'NONE',  ( 3.491481338843133355E-15, -1.224646799147353207E-16, 1.000000000000000000 ) ) ;
#217 = LOCAL_TIME ( 15, 48, 7.000000000000000000, #193 ) ;
#218 = FACE_OUTER_BOUND ( 'NONE', #22, .T. ) ;
#219 = ADVANCED_FACE ( 'NONE', ( #38 ), #121, .T. ) ;
#220 = DIRECTION ( 'NONE',  ( -3.491481338843133355E-15, 1.224646799147353207E-16, -1.000000000000000000 ) ) ;
#221 = CONICAL_SURFACE ( 'NONE', #29, 0.8000000000000010436, 0.7853981633974516097 ) ;
#222 = FACE_OUTER_BOUND ( 'NONE', #112, .T. ) ;
#223 = CC_DESIGN_PERSON_AND_ORGANIZATION_ASSIGNMENT ( #46, #106, ( #166 ) ) ;
ENDSEC;
END-ISO-10303-21;
