ISO-10303-21;
HEADER;
FILE_DESCRIPTION (( 'STEP AP203' ),
    '1' );
FILE_NAME ('45532.step',
    '2021-10-07T13:48:06',
    ( '' ),
    ( '' ),
    'SwSTEP 2.0',
    'SolidWorks 2019',
    '' );
FILE_SCHEMA (( 'CONFIG_CONTROL_DESIGN' ));
ENDSEC;

DATA;
#1 = VERTEX_POINT ( 'NONE', #119 ) ;
#2 = CC_DESIGN_APPROVAL ( #76, ( #26 ) ) ;
#3 = DIRECTION ( 'NONE',  ( 0.0000000000000000000, 1.000000000000000000, 0.0000000000000000000 ) ) ;
#4 = FACE_OUTER_BOUND ( 'NONE', #81, .T. ) ;
#5 = FACE_OUTER_BOUND ( 'NONE', #143, .T. ) ;
#6 = APPROVAL_STATUS ( 'not_yet_approved' ) ;
#7 = PRODUCT_DEFINITION_SHAPE ( 'NONE', 'NONE',  #21 ) ;
#8 = PERSON_AND_ORGANIZATION_ROLE ( 'design_supplier' ) ;
#9 = CARTESIAN_POINT ( 'NONE',  ( 4.189777606611760026E-14, 0.7799999999999942535, 12.00000000000000000 ) ) ;
#10 = EDGE_CURVE ( 'NONE', #118, #118, #28, .T. ) ;
#11 = AXIS2_PLACEMENT_3D ( 'NONE', #70, #87, #207 ) ;
#12 = CIRCLE ( 'NONE', #153, 0.7799999999999958078 ) ;
#13 = ORIENTED_EDGE ( 'NONE', *, *, #93, .F. ) ;
#14 = VERTEX_POINT ( 'NONE', #29 ) ;
#15 = ADVANCED_FACE ( 'NONE', ( #82, #90 ), #18, .T. ) ;
#16 = DIRECTION ( 'NONE',  ( 0.0000000000000000000, 1.000000000000000000, 0.0000000000000000000 ) ) ;
#17 = CARTESIAN_POINT ( 'NONE',  ( 4.189777606611760026E-14, -1.469576158976823947E-15, 12.00000000000000000 ) ) ;
#18 = CYLINDRICAL_SURFACE ( 'NONE', #19, 0.9999999999999991118 ) ;
#19 = AXIS2_PLACEMENT_3D ( 'NONE', #137, #184, #208 ) ;
#20 = DIRECTION ( 'NONE',  ( 0.0000000000000000000, 1.000000000000000000, 0.0000000000000000000 ) ) ;
#21 = PRODUCT_DEFINITION ( 'UNKNOWN', '', #171, #128 ) ;
#22 = DIRECTION ( 'NONE',  ( 3.491481338843133355E-15, -1.224646799147353207E-16, 1.000000000000000000 ) ) ;
#23 = PERSON_AND_ORGANIZATION ( #48, #210 ) ;
#24 = LOCAL_TIME ( 15, 48, 6.000000000000000000, #57 ) ;
#25 = APPROVAL_DATE_TIME ( #176, #127 ) ;
#26 = SECURITY_CLASSIFICATION ( '', '', #142 ) ;
#27 = CC_DESIGN_DATE_AND_TIME_ASSIGNMENT ( #96, #174, ( #21 ) ) ;
#28 = CIRCLE ( 'NONE', #75, 1.000000000000001110 ) ;
#29 = CARTESIAN_POINT ( 'NONE',  ( 1.636357038092763071E-15, 0.7799999999999934763, 0.4686712828414982823 ) ) ;
#30 = EDGE_LOOP ( 'NONE', ( #13 ) ) ;
#31 = COORDINATED_UNIVERSAL_TIME_OFFSET ( 1, 0, .AHEAD. ) ;
#32 = CC_DESIGN_SECURITY_CLASSIFICATION ( #26, ( #171 ) ) ;
#33 = APPROVAL_ROLE ( '' ) ;
#34 = AXIS2_PLACEMENT_3D ( 'NONE', #104, #205, #40 ) ;
#35 = DIRECTION ( 'NONE',  ( 3.491481338843133355E-15, -1.224646799147353207E-16, 1.000000000000000000 ) ) ;
#36 = DIRECTION ( 'NONE',  ( -3.491481338843133355E-15, 1.224646799147353207E-16, -1.000000000000000000 ) ) ;
#37 = EDGE_CURVE ( 'NONE', #1, #1, #12, .T. ) ;
#38 = VERTEX_POINT ( 'NONE', #9 ) ;
#39 = FACE_BOUND ( 'NONE', #98, .T. ) ;
#40 = DIRECTION ( 'NONE',  ( 4.275831445896958607E-31, 1.000000000000000000, 1.224646799147353207E-16 ) ) ;
#41 = CALENDAR_DATE ( 2021, 7, 10 ) ;
#42 = CC_DESIGN_PERSON_AND_ORGANIZATION_ASSIGNMENT ( #158, #8, ( #171 ) ) ;
#43 = APPROVAL ( #145, 'UNSPECIFIED' ) ;
#44 = AXIS2_PLACEMENT_3D ( 'NONE', #188, #120, #55 ) ;
#45 = PERSON_AND_ORGANIZATION ( #48, #210 ) ;
#46 = DIRECTION ( 'NONE',  ( 1.000000000000000000, 0.0000000000000000000, 0.0000000000000000000 ) ) ;
#47 = EDGE_LOOP ( 'NONE', ( #220 ) ) ;
#48 = PERSON ( 'UNSPECIFIED', 'UNSPECIFIED', 'UNSPECIFIED', ('UNSPECIFIED'), ('UNSPECIFIED'), ('UNSPECIFIED') ) ;
#49 = DATE_AND_TIME ( #195, #144 ) ;
#50 = EDGE_LOOP ( 'NONE', ( #146 ) ) ;
#51 = CIRCLE ( 'NONE', #56, 0.8000000000000010436 ) ;
#52 = CARTESIAN_POINT ( 'NONE',  ( 1.326762908760390423E-13, -4.653657836759941941E-15, 38.00000000000000000 ) ) ;
#53 = DIRECTION ( 'NONE',  ( -3.491481338843133355E-15, 1.224646799147353207E-16, -1.000000000000000000 ) ) ;
#54 = DIRECTION ( 'NONE',  ( -3.491481338843133355E-15, 1.224646799147353207E-16, -1.000000000000000000 ) ) ;
#55 = DIRECTION ( 'NONE',  ( 0.0000000000000000000, 1.000000000000000000, 0.0000000000000000000 ) ) ;
#56 = AXIS2_PLACEMENT_3D ( 'NONE', #116, #156, #152 ) ;
#57 = COORDINATED_UNIVERSAL_TIME_OFFSET ( 1, 0, .AHEAD. ) ;
#58 = LOCAL_TIME ( 15, 48, 6.000000000000000000, #31 ) ;
#59 = ADVANCED_FACE ( 'NONE', ( #5 ), #71, .T. ) ;
#60 = PERSON_AND_ORGANIZATION_ROLE ( 'classification_officer' ) ;
#61 = DIRECTION ( 'NONE',  ( 0.0000000000000000000, 0.0000000000000000000, 1.000000000000000000 ) ) ;
#62 = ORIENTED_EDGE ( 'NONE', *, *, #10, .F. ) ;
#63 = COORDINATED_UNIVERSAL_TIME_OFFSET ( 1, 0, .AHEAD. ) ;
#64 = UNCERTAINTY_MEASURE_WITH_UNIT (LENGTH_MEASURE( 1.000000000000000082E-05 ), #80, 'distance_accuracy_value', 'NONE');
#65 = CIRCLE ( 'NONE', #187, 0.9999999999999970024 ) ;
#66 = EDGE_LOOP ( 'NONE', ( #133 ) ) ;
#67 = DIRECTION ( 'NONE',  ( 0.0000000000000000000, 1.000000000000000000, 0.0000000000000000000 ) ) ;
#68 = APPROVAL_PERSON_ORGANIZATION ( #92, #43, #198 ) ;
#69 = FACE_BOUND ( 'NONE', #197, .T. ) ;
#70 = CARTESIAN_POINT ( 'NONE',  ( 1.636357038092762677E-15, -5.739567863841245213E-17, 0.4686712828414981713 ) ) ;
#71 = PLANE ( 'NONE',  #159 ) ;
#72 = MANIFOLD_SOLID_BREP ( 'Corps-Déplacer/Copier1[2]', #180 ) ;
#73 = DIRECTION ( 'NONE',  ( 0.0000000000000000000, -1.000000000000000000, 0.0000000000000000000 ) ) ;
#74 = CC_DESIGN_APPROVAL ( #43, ( #21 ) ) ;
#75 = AXIS2_PLACEMENT_3D ( 'NONE', #97, #164, #16 ) ;
#76 = APPROVAL ( #181, 'UNSPECIFIED' ) ;
#77 = CALENDAR_DATE ( 2021, 7, 10 ) ;
#78 = VERTEX_POINT ( 'NONE', #124 ) ;
#79 = CONICAL_SURFACE ( 'NONE', #11, 0.7799999999999935874, 1.029744258676649871 ) ;
#80 =( LENGTH_UNIT ( ) NAMED_UNIT ( * ) SI_UNIT ( .MILLI., .METRE. ) );
#81 = EDGE_LOOP ( 'NONE', ( #163 ) ) ;
#82 = FACE_OUTER_BOUND ( 'NONE', #129, .T. ) ;
#83 = EDGE_LOOP ( 'NONE', ( #112 ) ) ;
#84 = EDGE_CURVE ( 'NONE', #38, #38, #85, .T. ) ;
#85 = CIRCLE ( 'NONE', #44, 0.7799999999999958078 ) ;
#86 = CALENDAR_DATE ( 2021, 7, 10 ) ;
#87 = DIRECTION ( 'NONE',  ( 3.491481338843133355E-15, -1.224646799147353207E-16, 1.000000000000000000 ) ) ;
#88 = CARTESIAN_POINT ( 'NONE',  ( 4.189777606611760026E-14, 5.849063152381190206E-33, 12.00000000000000000 ) ) ;
#89 = PLANE ( 'NONE',  #113 ) ;
#90 = FACE_OUTER_BOUND ( 'NONE', #47, .T. ) ;
#91 = PERSON_AND_ORGANIZATION_ROLE ( 'creator' ) ;
#92 = PERSON_AND_ORGANIZATION ( #48, #210 ) ;
#93 = EDGE_CURVE ( 'NONE', #14, #14, #183, .T. ) ;
#94 = ORIENTED_EDGE ( 'NONE', *, *, #121, .T. ) ;
#95 = LOCAL_TIME ( 15, 48, 6.000000000000000000, #167 ) ;
#96 = DATE_AND_TIME ( #77, #58 ) ;
#97 = CARTESIAN_POINT ( 'NONE',  ( 1.319779946082704535E-13, -4.629164900776995227E-15, 37.79999999999999716 ) ) ;
#98 = EDGE_LOOP ( 'NONE', ( #131 ) ) ;
#99 = CC_DESIGN_DATE_AND_TIME_ASSIGNMENT ( #49, #199, ( #26 ) ) ;
#100 = AXIS2_PLACEMENT_3D ( 'NONE', #138, #35, #73 ) ;
#101 = FACE_OUTER_BOUND ( 'NONE', #66, .T. ) ;
#102 = CARTESIAN_POINT ( 'NONE',  ( 4.322820914207971479E-14, -1.516241469480720963E-15, 12.38105117766516194 ) ) ;
#103 = FACE_OUTER_BOUND ( 'NONE', #50, .T. ) ;
#104 = CARTESIAN_POINT ( 'NONE',  ( 1.326762908760390423E-13, 5.999039130647368167E-33, 38.00000000000000000 ) ) ;
#105 = DIRECTION ( 'NONE',  ( 3.491481338843133355E-15, -1.224646799147353207E-16, 1.000000000000000000 ) ) ;
#106 = CC_DESIGN_PERSON_AND_ORGANIZATION_ASSIGNMENT ( #189, #107, ( #21 ) ) ;
#107 = PERSON_AND_ORGANIZATION_ROLE ( 'creator' ) ;
#108 = APPROVAL_DATE_TIME ( #123, #43 ) ;
#109 = ADVANCED_FACE ( 'NONE', ( #154 ), #79, .T. ) ;
#110 = APPLICATION_CONTEXT ( 'configuration controlled 3d designs of mechanical parts and assemblies' ) ;
#111 = CALENDAR_DATE ( 2021, 7, 10 ) ;
#112 = ORIENTED_EDGE ( 'NONE', *, *, #115, .T. ) ;
#113 = AXIS2_PLACEMENT_3D ( 'NONE', #223, #105, #172 ) ;
#114 = PERSON_AND_ORGANIZATION ( #48, #210 ) ;
#115 = EDGE_CURVE ( 'NONE', #78, #78, #65, .T. ) ;
#116 = CARTESIAN_POINT ( 'NONE',  ( 1.326762908760390423E-13, -4.653657836759941941E-15, 38.00000000000000000 ) ) ;
#117 = AXIS2_PLACEMENT_3D ( 'NONE', #130, #61, #46 ) ;
#118 = VERTEX_POINT ( 'NONE', #169 ) ;
#119 = CARTESIAN_POINT ( 'NONE',  ( 4.189777606611760026E-14, 0.7799999999999942535, 12.00000000000000000 ) ) ;
#120 = DIRECTION ( 'NONE',  ( -3.491481338843133355E-15, 1.224646799147353207E-16, -1.000000000000000000 ) ) ;
#121 = EDGE_CURVE ( 'NONE', #211, #211, #51, .T. ) ;
#122 = CARTESIAN_POINT ( 'NONE',  ( 0.0000000000000000000, 0.0000000000000000000, 0.0000000000000000000 ) ) ;
#123 = DATE_AND_TIME ( #111, #219 ) ;
#124 = CARTESIAN_POINT ( 'NONE',  ( 4.322820914207971479E-14, 0.9999999999999954481, 12.38105117766516194 ) ) ;
#125 =( GEOMETRIC_REPRESENTATION_CONTEXT ( 3 ) GLOBAL_UNCERTAINTY_ASSIGNED_CONTEXT ( ( #64 ) ) GLOBAL_UNIT_ASSIGNED_CONTEXT ( ( #80, #161, #215 ) ) REPRESENTATION_CONTEXT ( 'NONE', 'WORKASPACE' ) );
#126 = COORDINATED_UNIVERSAL_TIME_OFFSET ( 1, 0, .AHEAD. ) ;
#127 = APPROVAL ( #6, 'UNSPECIFIED' ) ;
#128 = DESIGN_CONTEXT ( 'detailed design', #110, 'design' ) ;
#129 = EDGE_LOOP ( 'NONE', ( #150 ) ) ;
#130 = CARTESIAN_POINT ( 'NONE',  ( 0.0000000000000000000, 0.0000000000000000000, 0.0000000000000000000 ) ) ;
#131 = ORIENTED_EDGE ( 'NONE', *, *, #84, .F. ) ;
#132 = ADVANCED_FACE ( 'NONE', ( #39, #151 ), #166, .T. ) ;
#133 = ORIENTED_EDGE ( 'NONE', *, *, #84, .T. ) ;
#134 = DATE_AND_TIME ( #86, #95 ) ;
#135 = DIRECTION ( 'NONE',  ( -3.491481338843133355E-15, 1.224646799147353207E-16, -1.000000000000000000 ) ) ;
#136 = AXIS2_PLACEMENT_3D ( 'NONE', #122, #209, #173 ) ;
#137 = CARTESIAN_POINT ( 'NONE',  ( 0.0000000000000000000, 0.0000000000000000000, 0.0000000000000000000 ) ) ;
#138 = CARTESIAN_POINT ( 'NONE',  ( 4.322820914207971479E-14, -1.516241469480720963E-15, 12.38105117766516194 ) ) ;
#139 = CC_DESIGN_PERSON_AND_ORGANIZATION_ASSIGNMENT ( #157, #190, ( #204 ) ) ;
#140 = CYLINDRICAL_SURFACE ( 'NONE', #136, 0.7799999999999946976 ) ;
#141 = MECHANICAL_CONTEXT ( 'NONE', #203, 'mechanical' ) ;
#142 = SECURITY_CLASSIFICATION_LEVEL ( 'unclassified' ) ;
#143 = EDGE_LOOP ( 'NONE', ( #200 ) ) ;
#144 = LOCAL_TIME ( 15, 48, 6.000000000000000000, #126 ) ;
#145 = APPROVAL_STATUS ( 'not_yet_approved' ) ;
#146 = ORIENTED_EDGE ( 'NONE', *, *, #121, .F. ) ;
#147 = AXIS2_PLACEMENT_3D ( 'NONE', #182, #36, #186 ) ;
#148 = APPROVAL_DATE_TIME ( #134, #76 ) ;
#149 = MANIFOLD_SOLID_BREP ( 'Corps-Déplacer/Copier1[1]', #155 ) ;
#150 = ORIENTED_EDGE ( 'NONE', *, *, #115, .F. ) ;
#151 = FACE_OUTER_BOUND ( 'NONE', #83, .T. ) ;
#152 = DIRECTION ( 'NONE',  ( 0.0000000000000000000, 1.000000000000000000, 0.0000000000000000000 ) ) ;
#153 = AXIS2_PLACEMENT_3D ( 'NONE', #17, #54, #3 ) ;
#154 = FACE_OUTER_BOUND ( 'NONE', #165, .T. ) ;
#155 = CLOSED_SHELL ( 'NONE', ( #192, #132, #15, #201, #175 ) ) ;
#156 = DIRECTION ( 'NONE',  ( -3.491481338843133355E-15, 1.224646799147353207E-16, -1.000000000000000000 ) ) ;
#157 = PERSON_AND_ORGANIZATION ( #48, #210 ) ;
#158 = PERSON_AND_ORGANIZATION ( #48, #210 ) ;
#159 = AXIS2_PLACEMENT_3D ( 'NONE', #88, #22, #170 ) ;
#160 = PRODUCT_RELATED_PRODUCT_CATEGORY ( 'detail', '', ( #204 ) ) ;
#161 =( NAMED_UNIT ( * ) PLANE_ANGLE_UNIT ( ) SI_UNIT ( $, .RADIAN. ) );
#162 = APPLICATION_PROTOCOL_DEFINITION ( 'international standard', 'config_control_design', 1994, #110 ) ;
#163 = ORIENTED_EDGE ( 'NONE', *, *, #37, .T. ) ;
#164 = DIRECTION ( 'NONE',  ( -3.491481338843133355E-15, 1.224646799147353207E-16, -1.000000000000000000 ) ) ;
#165 = EDGE_LOOP ( 'NONE', ( #218 ) ) ;
#166 = CONICAL_SURFACE ( 'NONE', #100, 0.9999999999999970024, 0.5235987755982906000 ) ;
#167 = COORDINATED_UNIVERSAL_TIME_OFFSET ( 1, 0, .AHEAD. ) ;
#168 = FACE_OUTER_BOUND ( 'NONE', #222, .T. ) ;
#169 = CARTESIAN_POINT ( 'NONE',  ( 1.319779946082704535E-13, 0.9999999999999965583, 37.79999999999999716 ) ) ;
#170 = DIRECTION ( 'NONE',  ( -4.275831445896958607E-31, -1.000000000000000000, -1.224646799147353207E-16 ) ) ;
#171 = PRODUCT_DEFINITION_FORMATION_WITH_SPECIFIED_SOURCE ( 'ANY', '', #204, .NOT_KNOWN. ) ;
#172 = DIRECTION ( 'NONE',  ( -4.275831445896958607E-31, -1.000000000000000000, -1.224646799147353207E-16 ) ) ;
#173 = DIRECTION ( 'NONE',  ( 4.275831445896958607E-31, 1.000000000000000000, 1.224646799147353207E-16 ) ) ;
#174 = DATE_TIME_ROLE ( 'creation_date' ) ;
#175 = ADVANCED_FACE ( 'NONE', ( #103 ), #202, .F. ) ;
#176 = DATE_AND_TIME ( #41, #24 ) ;
#177 = AXIS2_PLACEMENT_3D ( 'NONE', #52, #135, #67 ) ;
#178 = APPLICATION_PROTOCOL_DEFINITION ( 'international standard', 'config_control_design', 1994, #203 ) ;
#179 = SHAPE_DEFINITION_REPRESENTATION ( #7, #196 ) ;
#180 = CLOSED_SHELL ( 'NONE', ( #109, #194, #59 ) ) ;
#181 = APPROVAL_STATUS ( 'not_yet_approved' ) ;
#182 = CARTESIAN_POINT ( 'NONE',  ( 1.636357038092762677E-15, -5.739567863841245213E-17, 0.4686712828414981713 ) ) ;
#183 = CIRCLE ( 'NONE', #147, 0.7799999999999935874 ) ;
#184 = DIRECTION ( 'NONE',  ( -3.491481338843133355E-15, 1.224646799147353207E-16, -1.000000000000000000 ) ) ;
#185 = FACE_OUTER_BOUND ( 'NONE', #30, .T. ) ;
#186 = DIRECTION ( 'NONE',  ( 4.938281908685261052E-31, 1.000000000000000000, 1.390002785237837714E-16 ) ) ;
#187 = AXIS2_PLACEMENT_3D ( 'NONE', #102, #53, #20 ) ;
#188 = CARTESIAN_POINT ( 'NONE',  ( 4.189777606611760026E-14, -1.469576158976823947E-15, 12.00000000000000000 ) ) ;
#189 = PERSON_AND_ORGANIZATION ( #48, #210 ) ;
#190 = PERSON_AND_ORGANIZATION_ROLE ( 'design_owner' ) ;
#191 = CC_DESIGN_PERSON_AND_ORGANIZATION_ASSIGNMENT ( #45, #91, ( #171 ) ) ;
#192 = ADVANCED_FACE ( 'NONE', ( #101 ), #89, .F. ) ;
#193 = APPROVAL_PERSON_ORGANIZATION ( #23, #127, #212 ) ;
#194 = ADVANCED_FACE ( 'NONE', ( #185, #4 ), #140, .T. ) ;
#195 = CALENDAR_DATE ( 2021, 7, 10 ) ;
#196 = ADVANCED_BREP_SHAPE_REPRESENTATION ( '45532', ( #149, #72, #117 ), #125 ) ;
#197 = EDGE_LOOP ( 'NONE', ( #94 ) ) ;
#198 = APPROVAL_ROLE ( '' ) ;
#199 = DATE_TIME_ROLE ( 'classification_date' ) ;
#200 = ORIENTED_EDGE ( 'NONE', *, *, #37, .F. ) ;
#201 = ADVANCED_FACE ( 'NONE', ( #168, #69 ), #216, .T. ) ;
#202 = PLANE ( 'NONE',  #34 ) ;
#203 = APPLICATION_CONTEXT ( 'configuration controlled 3d designs of mechanical parts and assemblies' ) ;
#204 = PRODUCT ( '45532', '45532', '', ( #141 ) ) ;
#205 = DIRECTION ( 'NONE',  ( -3.491481338843133355E-15, 1.224646799147353207E-16, -1.000000000000000000 ) ) ;
#206 = APPROVAL_PERSON_ORGANIZATION ( #114, #76, #33 ) ;
#207 = DIRECTION ( 'NONE',  ( -4.938281908685261052E-31, -1.000000000000000000, -1.390002785237837714E-16 ) ) ;
#208 = DIRECTION ( 'NONE',  ( 4.275831445896957731E-31, 1.000000000000000000, 1.224646799147353207E-16 ) ) ;
#209 = DIRECTION ( 'NONE',  ( -3.491481338843133355E-15, 1.224646799147353207E-16, -1.000000000000000000 ) ) ;
#210 = ORGANIZATION ( 'UNSPECIFIED', 'UNSPECIFIED', '' ) ;
#211 = VERTEX_POINT ( 'NONE', #217 ) ;
#212 = APPROVAL_ROLE ( '' ) ;
#213 = CC_DESIGN_PERSON_AND_ORGANIZATION_ASSIGNMENT ( #214, #60, ( #26 ) ) ;
#214 = PERSON_AND_ORGANIZATION ( #48, #210 ) ;
#215 =( NAMED_UNIT ( * ) SI_UNIT ( $, .STERADIAN. ) SOLID_ANGLE_UNIT ( ) );
#216 = CONICAL_SURFACE ( 'NONE', #177, 0.8000000000000010436, 0.7853981633974516097 ) ;
#217 = CARTESIAN_POINT ( 'NONE',  ( 1.326762908760390423E-13, 0.7999999999999963807, 38.00000000000000000 ) ) ;
#218 = ORIENTED_EDGE ( 'NONE', *, *, #93, .T. ) ;
#219 = LOCAL_TIME ( 15, 48, 6.000000000000000000, #63 ) ;
#220 = ORIENTED_EDGE ( 'NONE', *, *, #10, .T. ) ;
#221 = CC_DESIGN_APPROVAL ( #127, ( #171 ) ) ;
#222 = EDGE_LOOP ( 'NONE', ( #62 ) ) ;
#223 = CARTESIAN_POINT ( 'NONE',  ( 4.189777606611760026E-14, 5.849063152381190206E-33, 12.00000000000000000 ) ) ;
ENDSEC;
END-ISO-10303-21;
