ISO-10303-21;
HEADER;
FILE_DESCRIPTION (( 'STEP AP203' ),
    '1' );
FILE_NAME ('45531.step',
    '2021-10-07T13:48:06',
    ( '' ),
    ( '' ),
    'SwSTEP 2.0',
    'SolidWorks 2019',
    '' );
FILE_SCHEMA (( 'CONFIG_CONTROL_DESIGN' ));
ENDSEC;

DATA;
#1 = DIRECTION ( 'NONE',  ( 0.0000000000000000000, 1.000000000000000000, 0.0000000000000000000 ) ) ;
#2 = MANIFOLD_SOLID_BREP ( 'Corps-Déplacer/Copier1[1]', #3 ) ;
#3 = CLOSED_SHELL ( 'NONE', ( #186, #118, #64, #108, #145 ) ) ;
#4 = ORIENTED_EDGE ( 'NONE', *, *, #142, .F. ) ;
#5 = MANIFOLD_SOLID_BREP ( 'Corps-Déplacer/Copier1[2]', #22 ) ;
#6 = EDGE_LOOP ( 'NONE', ( #201 ) ) ;
#7 = DIRECTION ( 'NONE',  ( -3.491481338843133355E-15, 1.224646799147353207E-16, -1.000000000000000000 ) ) ;
#8 = ORGANIZATION ( 'UNSPECIFIED', 'UNSPECIFIED', '' ) ;
#9 = PERSON_AND_ORGANIZATION ( #78, #8 ) ;
#10 = MECHANICAL_CONTEXT ( 'NONE', #159, 'mechanical' ) ;
#11 = CC_DESIGN_PERSON_AND_ORGANIZATION_ASSIGNMENT ( #44, #46, ( #50 ) ) ;
#12 = VERTEX_POINT ( 'NONE', #26 ) ;
#13 = DIRECTION ( 'NONE',  ( 0.0000000000000000000, 1.000000000000000000, 0.0000000000000000000 ) ) ;
#14 = ORIENTED_EDGE ( 'NONE', *, *, #129, .F. ) ;
#15 = CIRCLE ( 'NONE', #169, 0.7699999999999942446 ) ;
#16 = CC_DESIGN_SECURITY_CLASSIFICATION ( #160, ( #50 ) ) ;
#17 = PERSON_AND_ORGANIZATION ( #78, #8 ) ;
#18 = CARTESIAN_POINT ( 'NONE',  ( 1.615378101706959688E-15, -5.665983660458670061E-17, 0.4626626766512229594 ) ) ;
#19 = FACE_OUTER_BOUND ( 'NONE', #168, .T. ) ;
#20 = DIRECTION ( 'NONE',  ( -5.002415439966883577E-31, -1.000000000000000000, -1.408054769461704542E-16 ) ) ;
#21 = CC_DESIGN_PERSON_AND_ORGANIZATION_ASSIGNMENT ( #74, #141, ( #171 ) ) ;
#22 = CLOSED_SHELL ( 'NONE', ( #67, #165, #91 ) ) ;
#23 = FACE_OUTER_BOUND ( 'NONE', #210, .T. ) ;
#24 = DIRECTION ( 'NONE',  ( 0.0000000000000000000, -1.000000000000000000, 0.0000000000000000000 ) ) ;
#25 = CIRCLE ( 'NONE', #151, 0.7699999999999961320 ) ;
#26 = CARTESIAN_POINT ( 'NONE',  ( 1.319779946082704535E-13, 0.9999999999999965583, 37.79999999999999716 ) ) ;
#27 = AXIS2_PLACEMENT_3D ( 'NONE', #188, #208, #1 ) ;
#28 = CALENDAR_DATE ( 2021, 7, 10 ) ;
#29 = APPROVAL_ROLE ( '' ) ;
#30 = CC_DESIGN_APPROVAL ( #130, ( #171 ) ) ;
#31 = DATE_TIME_ROLE ( 'classification_date' ) ;
#32 = PLANE ( 'NONE',  #144 ) ;
#33 = FACE_OUTER_BOUND ( 'NONE', #34, .T. ) ;
#34 = EDGE_LOOP ( 'NONE', ( #122 ) ) ;
#35 = AXIS2_PLACEMENT_3D ( 'NONE', #89, #174, #193 ) ;
#36 = DIRECTION ( 'NONE',  ( 0.0000000000000000000, 1.000000000000000000, 0.0000000000000000000 ) ) ;
#37 = DIRECTION ( 'NONE',  ( -3.491481338843133355E-15, 1.224646799147353207E-16, -1.000000000000000000 ) ) ;
#38 = APPROVAL_STATUS ( 'not_yet_approved' ) ;
#39 = CARTESIAN_POINT ( 'NONE',  ( 1.615378101706960082E-15, 0.7699999999999941336, 0.4626626766512230704 ) ) ;
#40 = AXIS2_PLACEMENT_3D ( 'NONE', #87, #179, #191 ) ;
#41 = COORDINATED_UNIVERSAL_TIME_OFFSET ( 1, 0, .AHEAD. ) ;
#42 = CARTESIAN_POINT ( 'NONE',  ( 1.326762908760390423E-13, 0.7999999999999963807, 38.00000000000000000 ) ) ;
#43 = APPROVAL ( #185, 'UNSPECIFIED' ) ;
#44 = PERSON_AND_ORGANIZATION ( #78, #8 ) ;
#45 = CC_DESIGN_DATE_AND_TIME_ASSIGNMENT ( #116, #99, ( #171 ) ) ;
#46 = PERSON_AND_ORGANIZATION_ROLE ( 'creator' ) ;
#47 = DIRECTION ( 'NONE',  ( -3.491481338843133355E-15, 1.224646799147353207E-16, -1.000000000000000000 ) ) ;
#48 = EDGE_LOOP ( 'NONE', ( #104 ) ) ;
#49 = PLANE ( 'NONE',  #219 ) ;
#50 = PRODUCT_DEFINITION_FORMATION_WITH_SPECIFIED_SOURCE ( 'ANY', '', #107, .NOT_KNOWN. ) ;
#51 = LOCAL_TIME ( 15, 48, 6.000000000000000000, #65 ) ;
#52 = ORIENTED_EDGE ( 'NONE', *, *, #129, .T. ) ;
#53 = APPLICATION_CONTEXT ( 'configuration controlled 3d designs of mechanical parts and assemblies' ) ;
#54 = APPROVAL_STATUS ( 'not_yet_approved' ) ;
#55 = APPROVAL_DATE_TIME ( #198, #130 ) ;
#56 = CIRCLE ( 'NONE', #149, 0.9999999999999978906 ) ;
#57 = COORDINATED_UNIVERSAL_TIME_OFFSET ( 1, 0, .AHEAD. ) ;
#58 = PERSON_AND_ORGANIZATION ( #78, #8 ) ;
#59 = CARTESIAN_POINT ( 'NONE',  ( 0.0000000000000000000, 0.0000000000000000000, 0.0000000000000000000 ) ) ;
#60 = PERSON_AND_ORGANIZATION_ROLE ( 'design_supplier' ) ;
#61 = AXIS2_PLACEMENT_3D ( 'NONE', #59, #180, #133 ) ;
#62 = EDGE_LOOP ( 'NONE', ( #153 ) ) ;
#63 = LOCAL_TIME ( 15, 48, 6.000000000000000000, #80 ) ;
#64 = ADVANCED_FACE ( 'NONE', ( #189, #19 ), #125, .T. ) ;
#65 = COORDINATED_UNIVERSAL_TIME_OFFSET ( 1, 0, .AHEAD. ) ;
#66 = DIRECTION ( 'NONE',  ( 5.002415439966883577E-31, 1.000000000000000000, 1.408054769461704542E-16 ) ) ;
#67 = ADVANCED_FACE ( 'NONE', ( #206 ), #202, .T. ) ;
#68 = EDGE_LOOP ( 'NONE', ( #14 ) ) ;
#69 = FACE_BOUND ( 'NONE', #204, .T. ) ;
#70 = ORIENTED_EDGE ( 'NONE', *, *, #142, .T. ) ;
#71 = CIRCLE ( 'NONE', #177, 1.000000000000001110 ) ;
#72 = CARTESIAN_POINT ( 'NONE',  ( 4.189777606611760026E-14, -1.469576158976823947E-15, 12.00000000000000000 ) ) ;
#73 = CC_DESIGN_DATE_AND_TIME_ASSIGNMENT ( #148, #31, ( #160 ) ) ;
#74 = PERSON_AND_ORGANIZATION ( #78, #8 ) ;
#75 = PERSON_AND_ORGANIZATION_ROLE ( 'design_owner' ) ;
#76 = EDGE_CURVE ( 'NONE', #213, #213, #94, .T. ) ;
#77 = APPROVAL_PERSON_ORGANIZATION ( #135, #43, #170 ) ;
#78 = PERSON ( 'UNSPECIFIED', 'UNSPECIFIED', 'UNSPECIFIED', ('UNSPECIFIED'), ('UNSPECIFIED'), ('UNSPECIFIED') ) ;
#79 =( NAMED_UNIT ( * ) SI_UNIT ( $, .STERADIAN. ) SOLID_ANGLE_UNIT ( ) );
#80 = COORDINATED_UNIVERSAL_TIME_OFFSET ( 1, 0, .AHEAD. ) ;
#81 = APPROVAL_DATE_TIME ( #150, #85 ) ;
#82 = EDGE_LOOP ( 'NONE', ( #221 ) ) ;
#83 = CC_DESIGN_APPROVAL ( #85, ( #50 ) ) ;
#84 = CALENDAR_DATE ( 2021, 7, 10 ) ;
#85 = APPROVAL ( #38, 'UNSPECIFIED' ) ;
#86 = UNCERTAINTY_MEASURE_WITH_UNIT (LENGTH_MEASURE( 1.000000000000000082E-05 ), #212, 'distance_accuracy_value', 'NONE');
#87 = CARTESIAN_POINT ( 'NONE',  ( 4.189777606611760026E-14, -1.469576158976823947E-15, 12.00000000000000000 ) ) ;
#88 = LOCAL_TIME ( 15, 48, 6.000000000000000000, #100 ) ;
#89 = CARTESIAN_POINT ( 'NONE',  ( 1.326762908760390423E-13, -4.653657836759941941E-15, 38.00000000000000000 ) ) ;
#90 = ORIENTED_EDGE ( 'NONE', *, *, #76, .F. ) ;
#91 = ADVANCED_FACE ( 'NONE', ( #110 ), #32, .T. ) ;
#92 = CYLINDRICAL_SURFACE ( 'NONE', #115, 0.7699999999999952438 ) ;
#93 = VERTEX_POINT ( 'NONE', #39 ) ;
#94 = CIRCLE ( 'NONE', #40, 0.7699999999999961320 ) ;
#95 = CIRCLE ( 'NONE', #27, 0.8000000000000010436 ) ;
#96 = ADVANCED_BREP_SHAPE_REPRESENTATION ( '45531', ( #2, #5, #61 ), #157 ) ;
#97 = DIRECTION ( 'NONE',  ( -4.275831445896958607E-31, -1.000000000000000000, -1.224646799147353207E-16 ) ) ;
#98 =( NAMED_UNIT ( * ) PLANE_ANGLE_UNIT ( ) SI_UNIT ( $, .RADIAN. ) );
#99 = DATE_TIME_ROLE ( 'creation_date' ) ;
#100 = COORDINATED_UNIVERSAL_TIME_OFFSET ( 1, 0, .AHEAD. ) ;
#101 = ORIENTED_EDGE ( 'NONE', *, *, #112, .T. ) ;
#102 = PERSON_AND_ORGANIZATION_ROLE ( 'classification_officer' ) ;
#103 = AXIS2_PLACEMENT_3D ( 'NONE', #196, #181, #97 ) ;
#104 = ORIENTED_EDGE ( 'NONE', *, *, #211, .T. ) ;
#105 = APPROVAL_PERSON_ORGANIZATION ( #58, #130, #131 ) ;
#106 = DIRECTION ( 'NONE',  ( 3.491481338843133355E-15, -1.224646799147353207E-16, 1.000000000000000000 ) ) ;
#107 = PRODUCT ( '45531', '45531', '', ( #10 ) ) ;
#108 = ADVANCED_FACE ( 'NONE', ( #23, #187 ), #114, .T. ) ;
#109 = CARTESIAN_POINT ( 'NONE',  ( 0.0000000000000000000, 0.0000000000000000000, 0.0000000000000000000 ) ) ;
#110 = FACE_OUTER_BOUND ( 'NONE', #147, .T. ) ;
#111 = DIRECTION ( 'NONE',  ( -3.491481338843133355E-15, 1.224646799147353207E-16, -1.000000000000000000 ) ) ;
#112 = EDGE_CURVE ( 'NONE', #93, #93, #15, .T. ) ;
#113 = CARTESIAN_POINT ( 'NONE',  ( 4.328868337280526488E-14, -1.518362619958170657E-15, 12.39837168574085169 ) ) ;
#114 = CONICAL_SURFACE ( 'NONE', #35, 0.8000000000000010436, 0.7853981633974516097 ) ;
#115 = AXIS2_PLACEMENT_3D ( 'NONE', #161, #7, #182 ) ;
#116 = DATE_AND_TIME ( #28, #119 ) ;
#117 = APPLICATION_PROTOCOL_DEFINITION ( 'international standard', 'config_control_design', 1994, #53 ) ;
#118 = ADVANCED_FACE ( 'NONE', ( #69, #176 ), #172, .T. ) ;
#119 = LOCAL_TIME ( 15, 48, 6.000000000000000000, #41 ) ;
#120 = SECURITY_CLASSIFICATION_LEVEL ( 'unclassified' ) ;
#121 = DATE_AND_TIME ( #167, #88 ) ;
#122 = ORIENTED_EDGE ( 'NONE', *, *, #112, .F. ) ;
#123 = EDGE_CURVE ( 'NONE', #166, #166, #25, .T. ) ;
#124 = DIRECTION ( 'NONE',  ( 4.275831445896958607E-31, 1.000000000000000000, 1.224646799147353207E-16 ) ) ;
#125 = CYLINDRICAL_SURFACE ( 'NONE', #190, 0.9999999999999995559 ) ;
#126 = CARTESIAN_POINT ( 'NONE',  ( 1.326762908760390423E-13, 5.999039130647368167E-33, 38.00000000000000000 ) ) ;
#127 = DIRECTION ( 'NONE',  ( -4.275831445896958607E-31, -1.000000000000000000, -1.224646799147353207E-16 ) ) ;
#128 = PERSON_AND_ORGANIZATION ( #78, #8 ) ;
#129 = EDGE_CURVE ( 'NONE', #216, #216, #95, .T. ) ;
#130 = APPROVAL ( #54, 'UNSPECIFIED' ) ;
#131 = APPROVAL_ROLE ( '' ) ;
#132 = PLANE ( 'NONE',  #103 ) ;
#133 = DIRECTION ( 'NONE',  ( 1.000000000000000000, 0.0000000000000000000, 0.0000000000000000000 ) ) ;
#134 = CC_DESIGN_PERSON_AND_ORGANIZATION_ASSIGNMENT ( #136, #102, ( #160 ) ) ;
#135 = PERSON_AND_ORGANIZATION ( #78, #8 ) ;
#136 = PERSON_AND_ORGANIZATION ( #78, #8 ) ;
#137 = DIRECTION ( 'NONE',  ( 3.491481338843133355E-15, -1.224646799147353207E-16, 1.000000000000000000 ) ) ;
#138 = CARTESIAN_POINT ( 'NONE',  ( 4.189777606611760026E-14, 5.774075163248100884E-33, 12.00000000000000000 ) ) ;
#139 = DIRECTION ( 'NONE',  ( 0.0000000000000000000, 1.000000000000000000, 0.0000000000000000000 ) ) ;
#140 = APPLICATION_PROTOCOL_DEFINITION ( 'international standard', 'config_control_design', 1994, #159 ) ;
#141 = PERSON_AND_ORGANIZATION_ROLE ( 'creator' ) ;
#142 = EDGE_CURVE ( 'NONE', #12, #12, #71, .T. ) ;
#143 = CARTESIAN_POINT ( 'NONE',  ( 4.328868337280526488E-14, 0.9999999999999963363, 12.39837168574085169 ) ) ;
#144 = AXIS2_PLACEMENT_3D ( 'NONE', #138, #106, #127 ) ;
#145 = ADVANCED_FACE ( 'NONE', ( #209 ), #49, .F. ) ;
#146 = DIRECTION ( 'NONE',  ( -3.491481338843133355E-15, 1.224646799147353207E-16, -1.000000000000000000 ) ) ;
#147 = EDGE_LOOP ( 'NONE', ( #90 ) ) ;
#148 = DATE_AND_TIME ( #84, #63 ) ;
#149 = AXIS2_PLACEMENT_3D ( 'NONE', #217, #146, #13 ) ;
#150 = DATE_AND_TIME ( #154, #51 ) ;
#151 = AXIS2_PLACEMENT_3D ( 'NONE', #72, #156, #36 ) ;
#152 = PRODUCT_RELATED_PRODUCT_CATEGORY ( 'detail', '', ( #107 ) ) ;
#153 = ORIENTED_EDGE ( 'NONE', *, *, #76, .T. ) ;
#154 = CALENDAR_DATE ( 2021, 7, 10 ) ;
#155 = DIRECTION ( 'NONE',  ( -3.491481338843133355E-15, 1.224646799147353207E-16, -1.000000000000000000 ) ) ;
#156 = DIRECTION ( 'NONE',  ( -3.491481338843133355E-15, 1.224646799147353207E-16, -1.000000000000000000 ) ) ;
#157 =( GEOMETRIC_REPRESENTATION_CONTEXT ( 3 ) GLOBAL_UNCERTAINTY_ASSIGNED_CONTEXT ( ( #86 ) ) GLOBAL_UNIT_ASSIGNED_CONTEXT ( ( #212, #98, #79 ) ) REPRESENTATION_CONTEXT ( 'NONE', 'WORKASPACE' ) );
#158 = DIRECTION ( 'NONE',  ( 4.275831445896958607E-31, 1.000000000000000000, 1.224646799147353207E-16 ) ) ;
#159 = APPLICATION_CONTEXT ( 'configuration controlled 3d designs of mechanical parts and assemblies' ) ;
#160 = SECURITY_CLASSIFICATION ( '', '', #120 ) ;
#161 = CARTESIAN_POINT ( 'NONE',  ( 0.0000000000000000000, 0.0000000000000000000, 0.0000000000000000000 ) ) ;
#162 = CC_DESIGN_PERSON_AND_ORGANIZATION_ASSIGNMENT ( #9, #75, ( #107 ) ) ;
#163 = CARTESIAN_POINT ( 'NONE',  ( 4.189777606611760026E-14, 0.7699999999999946887, 12.00000000000000000 ) ) ;
#164 = AXIS2_PLACEMENT_3D ( 'NONE', #113, #137, #24 ) ;
#165 = ADVANCED_FACE ( 'NONE', ( #33, #178 ), #92, .T. ) ;
#166 = VERTEX_POINT ( 'NONE', #199 ) ;
#167 = CALENDAR_DATE ( 2021, 7, 10 ) ;
#168 = EDGE_LOOP ( 'NONE', ( #70 ) ) ;
#169 = AXIS2_PLACEMENT_3D ( 'NONE', #222, #37, #66 ) ;
#170 = APPROVAL_ROLE ( '' ) ;
#171 = PRODUCT_DEFINITION ( 'UNKNOWN', '', #50, #223 ) ;
#172 = CONICAL_SURFACE ( 'NONE', #164, 0.9999999999999978906, 0.5235987755982919323 ) ;
#173 = ORIENTED_EDGE ( 'NONE', *, *, #123, .F. ) ;
#174 = DIRECTION ( 'NONE',  ( -3.491481338843133355E-15, 1.224646799147353207E-16, -1.000000000000000000 ) ) ;
#175 = DIRECTION ( 'NONE',  ( 3.491481338843133355E-15, -1.224646799147353207E-16, 1.000000000000000000 ) ) ;
#176 = FACE_OUTER_BOUND ( 'NONE', #48, .T. ) ;
#177 = AXIS2_PLACEMENT_3D ( 'NONE', #207, #47, #139 ) ;
#178 = FACE_OUTER_BOUND ( 'NONE', #62, .T. ) ;
#179 = DIRECTION ( 'NONE',  ( -3.491481338843133355E-15, 1.224646799147353207E-16, -1.000000000000000000 ) ) ;
#180 = DIRECTION ( 'NONE',  ( 0.0000000000000000000, 0.0000000000000000000, 1.000000000000000000 ) ) ;
#181 = DIRECTION ( 'NONE',  ( 3.491481338843133355E-15, -1.224646799147353207E-16, 1.000000000000000000 ) ) ;
#182 = DIRECTION ( 'NONE',  ( 4.275831445896958607E-31, 1.000000000000000000, 1.224646799147353207E-16 ) ) ;
#183 = CALENDAR_DATE ( 2021, 7, 10 ) ;
#184 = LOCAL_TIME ( 15, 48, 6.000000000000000000, #57 ) ;
#185 = APPROVAL_STATUS ( 'not_yet_approved' ) ;
#186 = ADVANCED_FACE ( 'NONE', ( #200 ), #132, .F. ) ;
#187 = FACE_BOUND ( 'NONE', #220, .T. ) ;
#188 = CARTESIAN_POINT ( 'NONE',  ( 1.326762908760390423E-13, -4.653657836759941941E-15, 38.00000000000000000 ) ) ;
#189 = FACE_OUTER_BOUND ( 'NONE', #82, .T. ) ;
#190 = AXIS2_PLACEMENT_3D ( 'NONE', #109, #155, #158 ) ;
#191 = DIRECTION ( 'NONE',  ( 0.0000000000000000000, 1.000000000000000000, 0.0000000000000000000 ) ) ;
#192 = AXIS2_PLACEMENT_3D ( 'NONE', #18, #175, #20 ) ;
#193 = DIRECTION ( 'NONE',  ( 0.0000000000000000000, 1.000000000000000000, 0.0000000000000000000 ) ) ;
#194 = CC_DESIGN_PERSON_AND_ORGANIZATION_ASSIGNMENT ( #17, #60, ( #50 ) ) ;
#195 = VERTEX_POINT ( 'NONE', #143 ) ;
#196 = CARTESIAN_POINT ( 'NONE',  ( 4.189777606611760026E-14, 5.774075163248100884E-33, 12.00000000000000000 ) ) ;
#197 = APPROVAL_PERSON_ORGANIZATION ( #128, #85, #29 ) ;
#198 = DATE_AND_TIME ( #183, #184 ) ;
#199 = CARTESIAN_POINT ( 'NONE',  ( 4.189777606611760026E-14, 0.7699999999999946887, 12.00000000000000000 ) ) ;
#200 = FACE_OUTER_BOUND ( 'NONE', #6, .T. ) ;
#201 = ORIENTED_EDGE ( 'NONE', *, *, #123, .T. ) ;
#202 = CONICAL_SURFACE ( 'NONE', #192, 0.7699999999999942446, 1.029744258676649649 ) ;
#203 = EDGE_LOOP ( 'NONE', ( #101 ) ) ;
#204 = EDGE_LOOP ( 'NONE', ( #173 ) ) ;
#205 = APPROVAL_DATE_TIME ( #121, #43 ) ;
#206 = FACE_OUTER_BOUND ( 'NONE', #203, .T. ) ;
#207 = CARTESIAN_POINT ( 'NONE',  ( 1.319779946082704535E-13, -4.629164900776995227E-15, 37.79999999999999716 ) ) ;
#208 = DIRECTION ( 'NONE',  ( -3.491481338843133355E-15, 1.224646799147353207E-16, -1.000000000000000000 ) ) ;
#209 = FACE_OUTER_BOUND ( 'NONE', #68, .T. ) ;
#210 = EDGE_LOOP ( 'NONE', ( #4 ) ) ;
#211 = EDGE_CURVE ( 'NONE', #195, #195, #56, .T. ) ;
#212 =( LENGTH_UNIT ( ) NAMED_UNIT ( * ) SI_UNIT ( .MILLI., .METRE. ) );
#213 = VERTEX_POINT ( 'NONE', #163 ) ;
#214 = CC_DESIGN_APPROVAL ( #43, ( #160 ) ) ;
#215 = PRODUCT_DEFINITION_SHAPE ( 'NONE', 'NONE',  #171 ) ;
#216 = VERTEX_POINT ( 'NONE', #42 ) ;
#217 = CARTESIAN_POINT ( 'NONE',  ( 4.328868337280526488E-14, -1.518362619958170657E-15, 12.39837168574085169 ) ) ;
#218 = SHAPE_DEFINITION_REPRESENTATION ( #215, #96 ) ;
#219 = AXIS2_PLACEMENT_3D ( 'NONE', #126, #111, #124 ) ;
#220 = EDGE_LOOP ( 'NONE', ( #52 ) ) ;
#221 = ORIENTED_EDGE ( 'NONE', *, *, #211, .F. ) ;
#222 = CARTESIAN_POINT ( 'NONE',  ( 1.615378101706959688E-15, -5.665983660458670061E-17, 0.4626626766512229594 ) ) ;
#223 = DESIGN_CONTEXT ( 'detailed design', #53, 'design' ) ;
ENDSEC;
END-ISO-10303-21;
