ISO-10303-21;
HEADER;
FILE_DESCRIPTION (( 'STEP AP203' ),
    '1' );
FILE_NAME ('455.step',
    '2021-10-07T13:48:05',
    ( '' ),
    ( '' ),
    'SwSTEP 2.0',
    'SolidWorks 2019',
    '' );
FILE_SCHEMA (( 'CONFIG_CONTROL_DESIGN' ));
ENDSEC;

DATA;
#1 = VERTEX_POINT ( 'NONE', #134 ) ;
#2 = CC_DESIGN_SECURITY_CLASSIFICATION ( #72, ( #206 ) ) ;
#3 = DIRECTION ( 'NONE',  ( 0.0000000000000000000, 1.000000000000000000, 0.0000000000000000000 ) ) ;
#4 = EDGE_LOOP ( 'NONE', ( #81 ) ) ;
#5 = VERTEX_POINT ( 'NONE', #68 ) ;
#6 = DIRECTION ( 'NONE',  ( -3.491481338843133355E-15, 1.224646799147353207E-16, -1.000000000000000000 ) ) ;
#7 = EDGE_LOOP ( 'NONE', ( #192 ) ) ;
#8 = COORDINATED_UNIVERSAL_TIME_OFFSET ( 1, 0, .AHEAD. ) ;
#9 = PRODUCT_DEFINITION ( 'UNKNOWN', '', #206, #119 ) ;
#10 = DIRECTION ( 'NONE',  ( 4.275831445896958607E-31, 1.000000000000000000, 1.224646799147353207E-16 ) ) ;
#11 =( NAMED_UNIT ( * ) PLANE_ANGLE_UNIT ( ) SI_UNIT ( $, .RADIAN. ) );
#12 = DATE_AND_TIME ( #153, #70 ) ;
#13 = PERSON_AND_ORGANIZATION ( #184, #188 ) ;
#14 = CLOSED_SHELL ( 'NONE', ( #109, #139, #176, #116, #27 ) ) ;
#15 = AXIS2_PLACEMENT_3D ( 'NONE', #168, #187, #35 ) ;
#16 = LOCAL_TIME ( 15, 48, 5.000000000000000000, #25 ) ;
#17 = DIRECTION ( 'NONE',  ( -3.491481338843133355E-15, 1.224646799147353207E-16, -1.000000000000000000 ) ) ;
#18 = AXIS2_PLACEMENT_3D ( 'NONE', #136, #83, #19 ) ;
#19 = DIRECTION ( 'NONE',  ( -4.275831445896958607E-31, -1.000000000000000000, -1.224646799147353207E-16 ) ) ;
#20 = DIRECTION ( 'NONE',  ( 4.275831445896958607E-31, 1.000000000000000000, 1.224646799147353207E-16 ) ) ;
#21 = PLANE ( 'NONE',  #191 ) ;
#22 = ORIENTED_EDGE ( 'NONE', *, *, #186, .F. ) ;
#23 = CALENDAR_DATE ( 2021, 7, 10 ) ;
#24 = FACE_OUTER_BOUND ( 'NONE', #85, .T. ) ;
#25 = COORDINATED_UNIVERSAL_TIME_OFFSET ( 1, 0, .AHEAD. ) ;
#26 = DATE_TIME_ROLE ( 'creation_date' ) ;
#27 = ADVANCED_FACE ( 'NONE', ( #24 ), #21, .F. ) ;
#28 = APPROVAL_DATE_TIME ( #110, #185 ) ;
#29 = CC_DESIGN_APPROVAL ( #185, ( #206 ) ) ;
#30 = DIRECTION ( 'NONE',  ( -4.275831445896958607E-31, -1.000000000000000000, -1.224646799147353207E-16 ) ) ;
#31 = CARTESIAN_POINT ( 'NONE',  ( 2.478951750578624682E-14, -8.694992273946207746E-16, 7.100000000000000533 ) ) ;
#32 = CIRCLE ( 'NONE', #172, 0.7499999999999992228 ) ;
#33 = APPROVAL_PERSON_ORGANIZATION ( #135, #45, #53 ) ;
#34 = CARTESIAN_POINT ( 'NONE',  ( 1.047444401652940007E-13, -3.673940397442059178E-15, 30.00000000000000000 ) ) ;
#35 = DIRECTION ( 'NONE',  ( 0.0000000000000000000, 1.000000000000000000, 0.0000000000000000000 ) ) ;
#36 = CYLINDRICAL_SURFACE ( 'NONE', #181, 0.4749999999999977573 ) ;
#37 = ORIENTED_EDGE ( 'NONE', *, *, #200, .T. ) ;
#38 = EDGE_LOOP ( 'NONE', ( #66 ) ) ;
#39 = ORIENTED_EDGE ( 'NONE', *, *, #220, .T. ) ;
#40 = CIRCLE ( 'NONE', #117, 0.4749999999999970912 ) ;
#41 = APPROVAL_DATE_TIME ( #108, #161 ) ;
#42 = CONICAL_SURFACE ( 'NONE', #111, 0.7499999999999964473, 0.5235987755982917102 ) ;
#43 = DIRECTION ( 'NONE',  ( -3.491481338843133355E-15, 1.224646799147353207E-16, -1.000000000000000000 ) ) ;
#44 = PERSON_AND_ORGANIZATION ( #184, #188 ) ;
#45 = APPROVAL ( #215, 'UNSPECIFIED' ) ;
#46 = CALENDAR_DATE ( 2021, 7, 10 ) ;
#47 = DIRECTION ( 'NONE',  ( -3.491481338843133355E-15, 1.224646799147353207E-16, -1.000000000000000000 ) ) ;
#48 = DIRECTION ( 'NONE',  ( 3.491481338843133355E-15, -1.224646799147353207E-16, 1.000000000000000000 ) ) ;
#49 = EDGE_LOOP ( 'NONE', ( #102 ) ) ;
#50 = CARTESIAN_POINT ( 'NONE',  ( 9.964994783257236028E-16, 0.4749999999999970357, 0.2854087940380925503 ) ) ;
#51 = EDGE_LOOP ( 'NONE', ( #37 ) ) ;
#52 = CONICAL_SURFACE ( 'NONE', #201, 0.4749999999999970912, 1.029744258676649649 ) ;
#53 = APPROVAL_ROLE ( '' ) ;
#54 = PERSON_AND_ORGANIZATION ( #184, #188 ) ;
#55 = CC_DESIGN_PERSON_AND_ORGANIZATION_ASSIGNMENT ( #71, #169, ( #72 ) ) ;
#56 = APPLICATION_CONTEXT ( 'configuration controlled 3d designs of mechanical parts and assemblies' ) ;
#57 = PERSON_AND_ORGANIZATION ( #184, #188 ) ;
#58 = PERSON_AND_ORGANIZATION_ROLE ( 'design_owner' ) ;
#59 = CARTESIAN_POINT ( 'NONE',  ( 2.478951750578624682E-14, -1.026592481292164760E-31, 7.100000000000000533 ) ) ;
#60 = CIRCLE ( 'NONE', #93, 0.5499999999999990452 ) ;
#61 = LOCAL_TIME ( 15, 48, 5.000000000000000000, #8 ) ;
#62 = MANIFOLD_SOLID_BREP ( 'Corps-Déplacer/Copier1[1]', #14 ) ;
#63 = MANIFOLD_SOLID_BREP ( 'Corps-Déplacer/Copier1[2]', #87 ) ;
#64 = CC_DESIGN_PERSON_AND_ORGANIZATION_ASSIGNMENT ( #221, #203, ( #206 ) ) ;
#65 = ADVANCED_FACE ( 'NONE', ( #73 ), #67, .T. ) ;
#66 = ORIENTED_EDGE ( 'NONE', *, *, #146, .T. ) ;
#67 = PLANE ( 'NONE',  #18 ) ;
#68 = CARTESIAN_POINT ( 'NONE',  ( 2.478951750578624682E-14, 0.4749999999999975353, 7.100000000000000533 ) ) ;
#69 = CC_DESIGN_APPROVAL ( #161, ( #9 ) ) ;
#70 = LOCAL_TIME ( 15, 48, 5.000000000000000000, #199 ) ;
#71 = PERSON_AND_ORGANIZATION ( #184, #188 ) ;
#72 = SECURITY_CLASSIFICATION ( '', '', #101 ) ;
#73 = FACE_OUTER_BOUND ( 'NONE', #49, .T. ) ;
#74 = APPLICATION_PROTOCOL_DEFINITION ( 'international standard', 'config_control_design', 1994, #56 ) ;
#75 = DIRECTION ( 'NONE',  ( -3.491481338843133355E-15, 1.224646799147353207E-16, -1.000000000000000000 ) ) ;
#76 = MECHANICAL_CONTEXT ( 'NONE', #56, 'mechanical' ) ;
#77 = COORDINATED_UNIVERSAL_TIME_OFFSET ( 1, 0, .AHEAD. ) ;
#78 = FACE_OUTER_BOUND ( 'NONE', #166, .T. ) ;
#79 = SHAPE_DEFINITION_REPRESENTATION ( #112, #125 ) ;
#80 = CC_DESIGN_PERSON_AND_ORGANIZATION_ASSIGNMENT ( #44, #58, ( #118 ) ) ;
#81 = ORIENTED_EDGE ( 'NONE', *, *, #155, .T. ) ;
#82 = FACE_OUTER_BOUND ( 'NONE', #51, .T. ) ;
#83 = DIRECTION ( 'NONE',  ( 3.491481338843133355E-15, -1.224646799147353207E-16, 1.000000000000000000 ) ) ;
#84 = AXIS2_PLACEMENT_3D ( 'NONE', #138, #91, #103 ) ;
#85 = EDGE_LOOP ( 'NONE', ( #170 ) ) ;
#86 = DATE_AND_TIME ( #23, #61 ) ;
#87 = CLOSED_SHELL ( 'NONE', ( #218, #104, #65 ) ) ;
#88 = CARTESIAN_POINT ( 'NONE',  ( 1.047444401652940007E-13, 4.124339402320045473E-33, 30.00000000000000000 ) ) ;
#89 = CARTESIAN_POINT ( 'NONE',  ( 0.0000000000000000000, 0.0000000000000000000, 0.0000000000000000000 ) ) ;
#90 = CARTESIAN_POINT ( 'NONE',  ( 0.0000000000000000000, 0.0000000000000000000, 0.0000000000000000000 ) ) ;
#91 = DIRECTION ( 'NONE',  ( 0.0000000000000000000, 0.0000000000000000000, 1.000000000000000000 ) ) ;
#92 = APPROVAL_STATUS ( 'not_yet_approved' ) ;
#93 = AXIS2_PLACEMENT_3D ( 'NONE', #34, #47, #97 ) ;
#94 = EDGE_CURVE ( 'NONE', #164, #164, #165, .T. ) ;
#95 = DIRECTION ( 'NONE',  ( 0.0000000000000000000, 1.000000000000000000, 0.0000000000000000000 ) ) ;
#96 = DATE_AND_TIME ( #115, #182 ) ;
#97 = DIRECTION ( 'NONE',  ( 0.0000000000000000000, 1.000000000000000000, 0.0000000000000000000 ) ) ;
#98 = CARTESIAN_POINT ( 'NONE',  ( 1.040461438975253866E-13, 0.7499999999999955591, 29.80000000000000426 ) ) ;
#99 = FACE_OUTER_BOUND ( 'NONE', #7, .T. ) ;
#100 = PLANE ( 'NONE',  #127 ) ;
#101 = SECURITY_CLASSIFICATION_LEVEL ( 'unclassified' ) ;
#102 = ORIENTED_EDGE ( 'NONE', *, *, #146, .F. ) ;
#103 = DIRECTION ( 'NONE',  ( 1.000000000000000000, 0.0000000000000000000, 0.0000000000000000000 ) ) ;
#104 = ADVANCED_FACE ( 'NONE', ( #211, #106 ), #36, .T. ) ;
#105 = FACE_OUTER_BOUND ( 'NONE', #198, .T. ) ;
#106 = FACE_OUTER_BOUND ( 'NONE', #38, .T. ) ;
#107 = LOCAL_TIME ( 15, 48, 5.000000000000000000, #77 ) ;
#108 = DATE_AND_TIME ( #128, #16 ) ;
#109 = ADVANCED_FACE ( 'NONE', ( #210 ), #100, .F. ) ;
#110 = DATE_AND_TIME ( #46, #107 ) ;
#111 = AXIS2_PLACEMENT_3D ( 'NONE', #209, #129, #207 ) ;
#112 = PRODUCT_DEFINITION_SHAPE ( 'NONE', 'NONE',  #9 ) ;
#113 = CARTESIAN_POINT ( 'NONE',  ( 1.047444401652940007E-13, -3.673940397442059178E-15, 30.00000000000000000 ) ) ;
#114 = CC_DESIGN_DATE_AND_TIME_ASSIGNMENT ( #12, #26, ( #9 ) ) ;
#115 = CALENDAR_DATE ( 2021, 7, 10 ) ;
#116 = ADVANCED_FACE ( 'NONE', ( #78, #179 ), #208, .T. ) ;
#117 = AXIS2_PLACEMENT_3D ( 'NONE', #144, #6, #149 ) ;
#118 = PRODUCT ( '455', '455', '', ( #76 ) ) ;
#119 = DESIGN_CONTEXT ( 'detailed design', #150, 'design' ) ;
#120 = VERTEX_POINT ( 'NONE', #98 ) ;
#121 = EDGE_LOOP ( 'NONE', ( #214 ) ) ;
#122 = EDGE_LOOP ( 'NONE', ( #39 ) ) ;
#123 = EDGE_LOOP ( 'NONE', ( #189 ) ) ;
#124 = CARTESIAN_POINT ( 'NONE',  ( 1.047444401652940007E-13, 0.5499999999999953815, 30.00000000000000000 ) ) ;
#125 = ADVANCED_BREP_SHAPE_REPRESENTATION ( '455', ( #62, #63, #84 ), #216 ) ;
#126 = DIRECTION ( 'NONE',  ( -3.491481338843133355E-15, 1.224646799147353207E-16, -1.000000000000000000 ) ) ;
#127 = AXIS2_PLACEMENT_3D ( 'NONE', #59, #204, #30 ) ;
#128 = CALENDAR_DATE ( 2021, 7, 10 ) ;
#129 = DIRECTION ( 'NONE',  ( 3.491481338843133355E-15, -1.224646799147353207E-16, 1.000000000000000000 ) ) ;
#130 = AXIS2_PLACEMENT_3D ( 'NONE', #217, #126, #174 ) ;
#131 = DIRECTION ( 'NONE',  ( -4.054589356604732089E-31, -1.000000000000000000, -1.141265444721590660E-16 ) ) ;
#132 = FACE_OUTER_BOUND ( 'NONE', #121, .T. ) ;
#133 = DIRECTION ( 'NONE',  ( 4.275831445896959482E-31, 1.000000000000000000, 1.224646799147353207E-16 ) ) ;
#134 = CARTESIAN_POINT ( 'NONE',  ( 2.478951750578624682E-14, 0.4749999999999975353, 7.100000000000000533 ) ) ;
#135 = PERSON_AND_ORGANIZATION ( #184, #188 ) ;
#136 = CARTESIAN_POINT ( 'NONE',  ( 2.478951750578624682E-14, -1.026592481292164760E-31, 7.100000000000000533 ) ) ;
#137 = APPLICATION_PROTOCOL_DEFINITION ( 'international standard', 'config_control_design', 1994, #150 ) ;
#138 = CARTESIAN_POINT ( 'NONE',  ( 0.0000000000000000000, 0.0000000000000000000, 0.0000000000000000000 ) ) ;
#139 = ADVANCED_FACE ( 'NONE', ( #219, #132 ), #42, .T. ) ;
#140 = VERTEX_POINT ( 'NONE', #124 ) ;
#141 = PERSON_AND_ORGANIZATION_ROLE ( 'creator' ) ;
#142 = COORDINATED_UNIVERSAL_TIME_OFFSET ( 1, 0, .AHEAD. ) ;
#143 = CIRCLE ( 'NONE', #15, 0.4749999999999984235 ) ;
#144 = CARTESIAN_POINT ( 'NONE',  ( 9.964994783257234055E-16, -3.495249660672561937E-17, 0.2854087940380924948 ) ) ;
#145 = CC_DESIGN_PERSON_AND_ORGANIZATION_ASSIGNMENT ( #13, #141, ( #206 ) ) ;
#146 = EDGE_CURVE ( 'NONE', #1, #1, #163, .T. ) ;
#147 = ORIENTED_EDGE ( 'NONE', *, *, #186, .T. ) ;
#148 = CC_DESIGN_APPROVAL ( #45, ( #72 ) ) ;
#149 = DIRECTION ( 'NONE',  ( 4.054589356604732089E-31, 1.000000000000000000, 1.141265444721590660E-16 ) ) ;
#150 = APPLICATION_CONTEXT ( 'configuration controlled 3d designs of mechanical parts and assemblies' ) ;
#151 = DATE_TIME_ROLE ( 'classification_date' ) ;
#152 = DIRECTION ( 'NONE',  ( -3.491481338843133355E-15, 1.224646799147353207E-16, -1.000000000000000000 ) ) ;
#153 = CALENDAR_DATE ( 2021, 7, 10 ) ;
#154 = DIRECTION ( 'NONE',  ( 0.0000000000000000000, 1.000000000000000000, 0.0000000000000000000 ) ) ;
#155 = EDGE_CURVE ( 'NONE', #5, #5, #143, .T. ) ;
#156 = DIRECTION ( 'NONE',  ( -3.491481338843133355E-15, 1.224646799147353207E-16, -1.000000000000000000 ) ) ;
#157 =( LENGTH_UNIT ( ) NAMED_UNIT ( * ) SI_UNIT ( .MILLI., .METRE. ) );
#158 = AXIS2_PLACEMENT_3D ( 'NONE', #113, #75, #95 ) ;
#159 = APPROVAL_STATUS ( 'not_yet_approved' ) ;
#160 = DIRECTION ( 'NONE',  ( -3.491481338843133355E-15, 1.224646799147353207E-16, -1.000000000000000000 ) ) ;
#161 = APPROVAL ( #92, 'UNSPECIFIED' ) ;
#162 = AXIS2_PLACEMENT_3D ( 'NONE', #89, #43, #20 ) ;
#163 = CIRCLE ( 'NONE', #222, 0.4749999999999984235 ) ;
#164 = VERTEX_POINT ( 'NONE', #213 ) ;
#165 = CIRCLE ( 'NONE', #130, 0.7499999999999964473 ) ;
#166 = EDGE_LOOP ( 'NONE', ( #22 ) ) ;
#167 = VERTEX_POINT ( 'NONE', #50 ) ;
#168 = CARTESIAN_POINT ( 'NONE',  ( 2.478951750578624682E-14, -8.694992273946207746E-16, 7.100000000000000533 ) ) ;
#169 = PERSON_AND_ORGANIZATION_ROLE ( 'classification_officer' ) ;
#170 = ORIENTED_EDGE ( 'NONE', *, *, #220, .F. ) ;
#171 = APPROVAL_ROLE ( '' ) ;
#172 = AXIS2_PLACEMENT_3D ( 'NONE', #194, #17, #3 ) ;
#173 = CYLINDRICAL_SURFACE ( 'NONE', #162, 0.7499999999999978906 ) ;
#174 = DIRECTION ( 'NONE',  ( 0.0000000000000000000, 1.000000000000000000, 0.0000000000000000000 ) ) ;
#175 = CC_DESIGN_DATE_AND_TIME_ASSIGNMENT ( #86, #151, ( #72 ) ) ;
#176 = ADVANCED_FACE ( 'NONE', ( #99, #105 ), #173, .T. ) ;
#177 = PERSON_AND_ORGANIZATION_ROLE ( 'creator' ) ;
#178 = PERSON_AND_ORGANIZATION ( #184, #188 ) ;
#179 = FACE_BOUND ( 'NONE', #122, .T. ) ;
#180 = APPROVAL_DATE_TIME ( #96, #45 ) ;
#181 = AXIS2_PLACEMENT_3D ( 'NONE', #90, #156, #133 ) ;
#182 = LOCAL_TIME ( 15, 48, 5.000000000000000000, #142 ) ;
#183 = APPROVAL_PERSON_ORGANIZATION ( #57, #185, #202 ) ;
#184 = PERSON ( 'UNSPECIFIED', 'UNSPECIFIED', 'UNSPECIFIED', ('UNSPECIFIED'), ('UNSPECIFIED'), ('UNSPECIFIED') ) ;
#185 = APPROVAL ( #159, 'UNSPECIFIED' ) ;
#186 = EDGE_CURVE ( 'NONE', #120, #120, #32, .T. ) ;
#187 = DIRECTION ( 'NONE',  ( -3.491481338843133355E-15, 1.224646799147353207E-16, -1.000000000000000000 ) ) ;
#188 = ORGANIZATION ( 'UNSPECIFIED', 'UNSPECIFIED', '' ) ;
#189 = ORIENTED_EDGE ( 'NONE', *, *, #200, .F. ) ;
#190 = CARTESIAN_POINT ( 'NONE',  ( 9.964994783257234055E-16, -3.495249660672561937E-17, 0.2854087940380924948 ) ) ;
#191 = AXIS2_PLACEMENT_3D ( 'NONE', #88, #152, #10 ) ;
#192 = ORIENTED_EDGE ( 'NONE', *, *, #94, .F. ) ;
#193 = ORIENTED_EDGE ( 'NONE', *, *, #155, .F. ) ;
#194 = CARTESIAN_POINT ( 'NONE',  ( 1.040461438975253866E-13, -3.649447461459112464E-15, 29.80000000000000426 ) ) ;
#195 = EDGE_LOOP ( 'NONE', ( #193 ) ) ;
#196 =( NAMED_UNIT ( * ) SI_UNIT ( $, .STERADIAN. ) SOLID_ANGLE_UNIT ( ) );
#197 = PRODUCT_RELATED_PRODUCT_CATEGORY ( 'detail', '', ( #118 ) ) ;
#198 = EDGE_LOOP ( 'NONE', ( #147 ) ) ;
#199 = COORDINATED_UNIVERSAL_TIME_OFFSET ( 1, 0, .AHEAD. ) ;
#200 = EDGE_CURVE ( 'NONE', #167, #167, #40, .T. ) ;
#201 = AXIS2_PLACEMENT_3D ( 'NONE', #190, #48, #131 ) ;
#202 = APPROVAL_ROLE ( '' ) ;
#203 = PERSON_AND_ORGANIZATION_ROLE ( 'design_supplier' ) ;
#204 = DIRECTION ( 'NONE',  ( 3.491481338843133355E-15, -1.224646799147353207E-16, 1.000000000000000000 ) ) ;
#205 = APPROVAL_PERSON_ORGANIZATION ( #54, #161, #171 ) ;
#206 = PRODUCT_DEFINITION_FORMATION_WITH_SPECIFIED_SOURCE ( 'ANY', '', #118, .NOT_KNOWN. ) ;
#207 = DIRECTION ( 'NONE',  ( 0.0000000000000000000, -1.000000000000000000, 0.0000000000000000000 ) ) ;
#208 = CONICAL_SURFACE ( 'NONE', #158, 0.5499999999999990452, 0.7853981633974604915 ) ;
#209 = CARTESIAN_POINT ( 'NONE',  ( 2.645255885073886474E-14, -9.278308655244913045E-16, 7.576313972081446302 ) ) ;
#210 = FACE_OUTER_BOUND ( 'NONE', #4, .T. ) ;
#211 = FACE_OUTER_BOUND ( 'NONE', #123, .T. ) ;
#212 = UNCERTAINTY_MEASURE_WITH_UNIT (LENGTH_MEASURE( 1.000000000000000082E-05 ), #157, 'distance_accuracy_value', 'NONE');
#213 = CARTESIAN_POINT ( 'NONE',  ( 2.645255885073886474E-14, 0.7499999999999954481, 7.576313972081446302 ) ) ;
#214 = ORIENTED_EDGE ( 'NONE', *, *, #94, .T. ) ;
#215 = APPROVAL_STATUS ( 'not_yet_approved' ) ;
#216 =( GEOMETRIC_REPRESENTATION_CONTEXT ( 3 ) GLOBAL_UNCERTAINTY_ASSIGNED_CONTEXT ( ( #212 ) ) GLOBAL_UNIT_ASSIGNED_CONTEXT ( ( #157, #11, #196 ) ) REPRESENTATION_CONTEXT ( 'NONE', 'WORKASPACE' ) );
#217 = CARTESIAN_POINT ( 'NONE',  ( 2.645255885073886474E-14, -9.278308655244913045E-16, 7.576313972081446302 ) ) ;
#218 = ADVANCED_FACE ( 'NONE', ( #82 ), #52, .T. ) ;
#219 = FACE_BOUND ( 'NONE', #195, .T. ) ;
#220 = EDGE_CURVE ( 'NONE', #140, #140, #60, .T. ) ;
#221 = PERSON_AND_ORGANIZATION ( #184, #188 ) ;
#222 = AXIS2_PLACEMENT_3D ( 'NONE', #31, #160, #154 ) ;
#223 = CC_DESIGN_PERSON_AND_ORGANIZATION_ASSIGNMENT ( #178, #177, ( #9 ) ) ;
ENDSEC;
END-ISO-10303-21;
