ISO-10303-21;
HEADER;
FILE_DESCRIPTION (( 'STEP AP203' ),
    '1' );
FILE_NAME ('45351.step',
    '2021-10-07T13:48:05',
    ( '' ),
    ( '' ),
    'SwSTEP 2.0',
    'SolidWorks 2019',
    '' );
FILE_SCHEMA (( 'CONFIG_CONTROL_DESIGN' ));
ENDSEC;

DATA;
#1 = LOCAL_TIME ( 15, 48, 4.000000000000000000, #83 ) ;
#2 = EDGE_LOOP ( 'NONE', ( #106 ) ) ;
#3 = DIRECTION ( 'NONE',  ( 0.0000000000000000000, -1.000000000000000000, 0.0000000000000000000 ) ) ;
#4 = ORIENTED_EDGE ( 'NONE', *, *, #65, .F. ) ;
#5 = APPLICATION_CONTEXT ( 'configuration controlled 3d designs of mechanical parts and assemblies' ) ;
#6 = CARTESIAN_POINT ( 'NONE',  ( 4.319797202671693975E-14, -1.515180894241995919E-15, 12.37239092362731796 ) ) ;
#7 = DIRECTION ( 'NONE',  ( 1.000000000000000000, 0.0000000000000000000, 0.0000000000000000000 ) ) ;
#8 = ORIENTED_EDGE ( 'NONE', *, *, #104, .T. ) ;
#9 = VERTEX_POINT ( 'NONE', #25 ) ;
#10 =( NAMED_UNIT ( * ) SI_UNIT ( $, .STERADIAN. ) SOLID_ANGLE_UNIT ( ) );
#11 = DATE_AND_TIME ( #201, #1 ) ;
#12 = COORDINATED_UNIVERSAL_TIME_OFFSET ( 1, 0, .AHEAD. ) ;
#13 = DATE_AND_TIME ( #99, #150 ) ;
#14 = AXIS2_PLACEMENT_3D ( 'NONE', #156, #162, #188 ) ;
#15 = CLOSED_SHELL ( 'NONE', ( #169, #165, #71, #222, #100 ) ) ;
#16 = ORIENTED_EDGE ( 'NONE', *, *, #139, .T. ) ;
#17 = LOCAL_TIME ( 15, 48, 4.000000000000000000, #12 ) ;
#18 = ORIENTED_EDGE ( 'NONE', *, *, #111, .F. ) ;
#19 = VERTEX_POINT ( 'NONE', #127 ) ;
#20 = VERTEX_POINT ( 'NONE', #198 ) ;
#21 = APPROVAL_PERSON_ORGANIZATION ( #144, #148, #66 ) ;
#22 = APPROVAL ( #112, 'UNSPECIFIED' ) ;
#23 = COORDINATED_UNIVERSAL_TIME_OFFSET ( 1, 0, .AHEAD. ) ;
#24 = CARTESIAN_POINT ( 'NONE',  ( 1.326762908760390423E-13, -4.653657836759941941E-15, 38.00000000000000000 ) ) ;
#25 = CARTESIAN_POINT ( 'NONE',  ( 1.319779946082704535E-13, 0.9999999999999963363, 37.79999999999999716 ) ) ;
#26 = ADVANCED_FACE ( 'NONE', ( #177 ), #126, .T. ) ;
#27 = LOCAL_TIME ( 15, 48, 4.000000000000000000, #80 ) ;
#28 = CARTESIAN_POINT ( 'NONE',  ( 0.0000000000000000000, 0.0000000000000000000, 0.0000000000000000000 ) ) ;
#29 = APPROVAL_STATUS ( 'not_yet_approved' ) ;
#30 = DATE_AND_TIME ( #220, #67 ) ;
#31 = DIRECTION ( 'NONE',  ( -3.491481338843133355E-15, 1.224646799147353207E-16, -1.000000000000000000 ) ) ;
#32 = AXIS2_PLACEMENT_3D ( 'NONE', #183, #78, #216 ) ;
#33 = PRODUCT_DEFINITION_FORMATION_WITH_SPECIFIED_SOURCE ( 'ANY', '', #187, .NOT_KNOWN. ) ;
#34 = ORIENTED_EDGE ( 'NONE', *, *, #36, .F. ) ;
#35 = CARTESIAN_POINT ( 'NONE',  ( 1.326762908760390423E-13, -4.653657836759941941E-15, 38.00000000000000000 ) ) ;
#36 = EDGE_CURVE ( 'NONE', #124, #124, #209, .T. ) ;
#37 = EDGE_LOOP ( 'NONE', ( #77 ) ) ;
#38 = DIRECTION ( 'NONE',  ( -3.491481338843133355E-15, 1.224646799147353207E-16, -1.000000000000000000 ) ) ;
#39 = APPLICATION_PROTOCOL_DEFINITION ( 'international standard', 'config_control_design', 1994, #5 ) ;
#40 = ADVANCED_FACE ( 'NONE', ( #55 ), #52, .T. ) ;
#41 = DIRECTION ( 'NONE',  ( -4.275831445896958607E-31, -1.000000000000000000, -1.224646799147353207E-16 ) ) ;
#42 = AXIS2_PLACEMENT_3D ( 'NONE', #35, #101, #171 ) ;
#43 = CIRCLE ( 'NONE', #161, 0.7849999999999938138 ) ;
#44 = DIRECTION ( 'NONE',  ( 3.491481338843133355E-15, -1.224646799147353207E-16, 1.000000000000000000 ) ) ;
#45 = CARTESIAN_POINT ( 'NONE',  ( 1.326762908760390423E-13, 0.7999999999999962697, 38.00000000000000000 ) ) ;
#46 = CALENDAR_DATE ( 2021, 7, 10 ) ;
#47 = APPROVAL_STATUS ( 'not_yet_approved' ) ;
#48 = CC_DESIGN_PERSON_AND_ORGANIZATION_ASSIGNMENT ( #184, #129, ( #33 ) ) ;
#49 = CC_DESIGN_DATE_AND_TIME_ASSIGNMENT ( #30, #221, ( #68 ) ) ;
#50 = SECURITY_CLASSIFICATION ( '', '', #143 ) ;
#51 = CARTESIAN_POINT ( 'NONE',  ( 4.189777606611760026E-14, 5.886557146947721867E-33, 12.00000000000000000 ) ) ;
#52 = PLANE ( 'NONE',  #182 ) ;
#53 = CARTESIAN_POINT ( 'NONE',  ( 4.189777606611760026E-14, 5.886557146947721867E-33, 12.00000000000000000 ) ) ;
#54 = CC_DESIGN_PERSON_AND_ORGANIZATION_ASSIGNMENT ( #117, #97, ( #50 ) ) ;
#55 = FACE_OUTER_BOUND ( 'NONE', #206, .T. ) ;
#56 = PERSON_AND_ORGANIZATION ( #118, #186 ) ;
#57 = FACE_OUTER_BOUND ( 'NONE', #37, .T. ) ;
#58 = APPROVAL_DATE_TIME ( #142, #22 ) ;
#59 = PLANE ( 'NONE',  #175 ) ;
#60 = COORDINATED_UNIVERSAL_TIME_OFFSET ( 1, 0, .AHEAD. ) ;
#61 = PERSON_AND_ORGANIZATION_ROLE ( 'creator' ) ;
#62 = AXIS2_PLACEMENT_3D ( 'NONE', #51, #125, #136 ) ;
#63 = CONICAL_SURFACE ( 'NONE', #197, 0.9999999999999970024, 0.5235987755982952629 ) ;
#64 = MANIFOLD_SOLID_BREP ( 'Corps-Déplacer/Copier1[2]', #170 ) ;
#65 = EDGE_CURVE ( 'NONE', #20, #20, #43, .T. ) ;
#66 = APPROVAL_ROLE ( '' ) ;
#67 = LOCAL_TIME ( 15, 48, 4.000000000000000000, #23 ) ;
#68 = PRODUCT_DEFINITION ( 'UNKNOWN', '', #33, #94 ) ;
#69 = EDGE_LOOP ( 'NONE', ( #190 ) ) ;
#70 = FACE_OUTER_BOUND ( 'NONE', #88, .T. ) ;
#71 = ADVANCED_FACE ( 'NONE', ( #173, #195 ), #109, .T. ) ;
#72 = ORIENTED_EDGE ( 'NONE', *, *, #93, .T. ) ;
#73 =( GEOMETRIC_REPRESENTATION_CONTEXT ( 3 ) GLOBAL_UNCERTAINTY_ASSIGNED_CONTEXT ( ( #168 ) ) GLOBAL_UNIT_ASSIGNED_CONTEXT ( ( #180, #218, #10 ) ) REPRESENTATION_CONTEXT ( 'NONE', 'WORKASPACE' ) );
#74 = CIRCLE ( 'NONE', #42, 0.8000000000000009326 ) ;
#75 = CARTESIAN_POINT ( 'NONE',  ( 0.0000000000000000000, 0.0000000000000000000, 0.0000000000000000000 ) ) ;
#76 = CC_DESIGN_APPROVAL ( #22, ( #68 ) ) ;
#77 = ORIENTED_EDGE ( 'NONE', *, *, #104, .F. ) ;
#78 = DIRECTION ( 'NONE',  ( -3.491481338843133355E-15, 1.224646799147353207E-16, -1.000000000000000000 ) ) ;
#79 = APPLICATION_PROTOCOL_DEFINITION ( 'international standard', 'config_control_design', 1994, #160 ) ;
#80 = COORDINATED_UNIVERSAL_TIME_OFFSET ( 1, 0, .AHEAD. ) ;
#81 = CARTESIAN_POINT ( 'NONE',  ( 4.319797202671693975E-14, 0.9999999999999954481, 12.37239092362731796 ) ) ;
#82 = DIRECTION ( 'NONE',  ( -3.491481338843133355E-15, 1.224646799147353207E-16, -1.000000000000000000 ) ) ;
#83 = COORDINATED_UNIVERSAL_TIME_OFFSET ( 1, 0, .AHEAD. ) ;
#84 = CIRCLE ( 'NONE', #32, 0.7849999999999938138 ) ;
#85 = APPROVAL ( #47, 'UNSPECIFIED' ) ;
#86 = EDGE_LOOP ( 'NONE', ( #4 ) ) ;
#87 = CONICAL_SURFACE ( 'NONE', #189, 0.8000000000000009326, 0.7853981633974512766 ) ;
#88 = EDGE_LOOP ( 'NONE', ( #135 ) ) ;
#89 = ORIENTED_EDGE ( 'NONE', *, *, #93, .F. ) ;
#90 = CARTESIAN_POINT ( 'NONE',  ( 4.319797202671693975E-14, -1.515180894241995919E-15, 12.37239092362731796 ) ) ;
#91 = ADVANCED_BREP_SHAPE_REPRESENTATION ( '45351', ( #219, #64, #202 ), #73 ) ;
#92 = APPROVAL_ROLE ( '' ) ;
#93 = EDGE_CURVE ( 'NONE', #212, #212, #84, .T. ) ;
#94 = DESIGN_CONTEXT ( 'detailed design', #5, 'design' ) ;
#95 = CC_DESIGN_DATE_AND_TIME_ASSIGNMENT ( #13, #98, ( #50 ) ) ;
#96 = FACE_OUTER_BOUND ( 'NONE', #102, .T. ) ;
#97 = PERSON_AND_ORGANIZATION_ROLE ( 'classification_officer' ) ;
#98 = DATE_TIME_ROLE ( 'classification_date' ) ;
#99 = CALENDAR_DATE ( 2021, 7, 10 ) ;
#100 = ADVANCED_FACE ( 'NONE', ( #96 ), #59, .F. ) ;
#101 = DIRECTION ( 'NONE',  ( -3.491481338843133355E-15, 1.224646799147353207E-16, -1.000000000000000000 ) ) ;
#102 = EDGE_LOOP ( 'NONE', ( #157 ) ) ;
#103 = CC_DESIGN_APPROVAL ( #148, ( #50 ) ) ;
#104 = EDGE_CURVE ( 'NONE', #9, #9, #164, .T. ) ;
#105 = FACE_BOUND ( 'NONE', #153, .T. ) ;
#106 = ORIENTED_EDGE ( 'NONE', *, *, #36, .T. ) ;
#107 = DIRECTION ( 'NONE',  ( 0.0000000000000000000, 1.000000000000000000, 0.0000000000000000000 ) ) ;
#108 = FACE_BOUND ( 'NONE', #86, .T. ) ;
#109 = CYLINDRICAL_SURFACE ( 'NONE', #114, 0.9999999999999988898 ) ;
#110 = APPROVAL_PERSON_ORGANIZATION ( #155, #22, #92 ) ;
#111 = EDGE_CURVE ( 'NONE', #19, #19, #146, .T. ) ;
#112 = APPROVAL_STATUS ( 'not_yet_approved' ) ;
#113 = DATE_AND_TIME ( #46, #17 ) ;
#114 = AXIS2_PLACEMENT_3D ( 'NONE', #28, #82, #200 ) ;
#115 = APPROVAL_DATE_TIME ( #11, #85 ) ;
#116 = CARTESIAN_POINT ( 'NONE',  ( 1.326762908760390423E-13, 5.999039130647367482E-33, 38.00000000000000000 ) ) ;
#117 = PERSON_AND_ORGANIZATION ( #118, #186 ) ;
#118 = PERSON ( 'UNSPECIFIED', 'UNSPECIFIED', 'UNSPECIFIED', ('UNSPECIFIED'), ('UNSPECIFIED'), ('UNSPECIFIED') ) ;
#119 = APPROVAL_ROLE ( '' ) ;
#120 = EDGE_LOOP ( 'NONE', ( #18 ) ) ;
#121 = EDGE_LOOP ( 'NONE', ( #72 ) ) ;
#122 = DIRECTION ( 'NONE',  ( 3.491481338843133355E-15, -1.224646799147353207E-16, 1.000000000000000000 ) ) ;
#123 = CARTESIAN_POINT ( 'NONE',  ( 4.189777606611760026E-14, -1.469576158976823947E-15, 12.00000000000000000 ) ) ;
#124 = VERTEX_POINT ( 'NONE', #81 ) ;
#125 = DIRECTION ( 'NONE',  ( 3.491481338843133355E-15, -1.224646799147353207E-16, 1.000000000000000000 ) ) ;
#126 = CONICAL_SURFACE ( 'NONE', #167, 0.7849999999999937028, 1.029744258676649871 ) ;
#127 = CARTESIAN_POINT ( 'NONE',  ( 1.646846506285666143E-15, 0.7849999999999935918, 0.4716755859366362214 ) ) ;
#128 = APPROVAL_DATE_TIME ( #113, #148 ) ;
#129 = PERSON_AND_ORGANIZATION_ROLE ( 'design_supplier' ) ;
#130 = DIRECTION ( 'NONE',  ( -3.491481338843133355E-15, 1.224646799147353207E-16, -1.000000000000000000 ) ) ;
#131 = SHAPE_DEFINITION_REPRESENTATION ( #145, #91 ) ;
#132 = CC_DESIGN_PERSON_AND_ORGANIZATION_ASSIGNMENT ( #56, #194, ( #187 ) ) ;
#133 = DIRECTION ( 'NONE',  ( 4.275831445896958607E-31, 1.000000000000000000, 1.224646799147353207E-16 ) ) ;
#134 = CARTESIAN_POINT ( 'NONE',  ( 1.646846506285665749E-15, -5.776359965532537720E-17, 0.4716755859366361103 ) ) ;
#135 = ORIENTED_EDGE ( 'NONE', *, *, #65, .T. ) ;
#136 = DIRECTION ( 'NONE',  ( -4.275831445896958607E-31, -1.000000000000000000, -1.224646799147353207E-16 ) ) ;
#137 = DIRECTION ( 'NONE',  ( -4.906827883789175622E-31, -1.000000000000000000, -1.381149264312755674E-16 ) ) ;
#138 = CALENDAR_DATE ( 2021, 7, 10 ) ;
#139 = EDGE_CURVE ( 'NONE', #140, #140, #74, .T. ) ;
#140 = VERTEX_POINT ( 'NONE', #45 ) ;
#141 = DIRECTION ( 'NONE',  ( 4.275831445896958607E-31, 1.000000000000000000, 1.224646799147353207E-16 ) ) ;
#142 = DATE_AND_TIME ( #138, #27 ) ;
#143 = SECURITY_CLASSIFICATION_LEVEL ( 'unclassified' ) ;
#144 = PERSON_AND_ORGANIZATION ( #118, #186 ) ;
#145 = PRODUCT_DEFINITION_SHAPE ( 'NONE', 'NONE',  #68 ) ;
#146 = CIRCLE ( 'NONE', #14, 0.7849999999999937028 ) ;
#147 = PERSON_AND_ORGANIZATION ( #118, #186 ) ;
#148 = APPROVAL ( #29, 'UNSPECIFIED' ) ;
#149 = DIRECTION ( 'NONE',  ( 3.491481338843133355E-15, -1.224646799147353207E-16, 1.000000000000000000 ) ) ;
#150 = LOCAL_TIME ( 15, 48, 4.000000000000000000, #60 ) ;
#151 = APPROVAL_PERSON_ORGANIZATION ( #147, #85, #119 ) ;
#152 = CYLINDRICAL_SURFACE ( 'NONE', #213, 0.7849999999999938138 ) ;
#153 = EDGE_LOOP ( 'NONE', ( #16 ) ) ;
#154 = PRODUCT_RELATED_PRODUCT_CATEGORY ( 'detail', '', ( #187 ) ) ;
#155 = PERSON_AND_ORGANIZATION ( #118, #186 ) ;
#156 = CARTESIAN_POINT ( 'NONE',  ( 1.646846506285665749E-15, -5.776359965532537720E-17, 0.4716755859366361103 ) ) ;
#157 = ORIENTED_EDGE ( 'NONE', *, *, #139, .F. ) ;
#158 = FACE_OUTER_BOUND ( 'NONE', #121, .T. ) ;
#159 = DIRECTION ( 'NONE',  ( -3.491481338843133355E-15, 1.224646799147353207E-16, -1.000000000000000000 ) ) ;
#160 = APPLICATION_CONTEXT ( 'configuration controlled 3d designs of mechanical parts and assemblies' ) ;
#161 = AXIS2_PLACEMENT_3D ( 'NONE', #123, #214, #193 ) ;
#162 = DIRECTION ( 'NONE',  ( -3.491481338843133355E-15, 1.224646799147353207E-16, -1.000000000000000000 ) ) ;
#163 = PERSON_AND_ORGANIZATION ( #118, #186 ) ;
#164 = CIRCLE ( 'NONE', #223, 1.000000000000000888 ) ;
#165 = ADVANCED_FACE ( 'NONE', ( #108, #176 ), #63, .T. ) ;
#166 = CC_DESIGN_PERSON_AND_ORGANIZATION_ASSIGNMENT ( #163, #61, ( #33 ) ) ;
#167 = AXIS2_PLACEMENT_3D ( 'NONE', #134, #149, #137 ) ;
#168 = UNCERTAINTY_MEASURE_WITH_UNIT (LENGTH_MEASURE( 1.000000000000000082E-05 ), #180, 'distance_accuracy_value', 'NONE');
#169 = ADVANCED_FACE ( 'NONE', ( #70 ), #207, .F. ) ;
#170 = CLOSED_SHELL ( 'NONE', ( #26, #192, #40 ) ) ;
#171 = DIRECTION ( 'NONE',  ( 0.0000000000000000000, 1.000000000000000000, 0.0000000000000000000 ) ) ;
#172 = DIRECTION ( 'NONE',  ( 0.0000000000000000000, 0.0000000000000000000, 1.000000000000000000 ) ) ;
#173 = FACE_OUTER_BOUND ( 'NONE', #211, .T. ) ;
#174 = DIRECTION ( 'NONE',  ( -3.491481338843133355E-15, 1.224646799147353207E-16, -1.000000000000000000 ) ) ;
#175 = AXIS2_PLACEMENT_3D ( 'NONE', #116, #31, #133 ) ;
#176 = FACE_OUTER_BOUND ( 'NONE', #2, .T. ) ;
#177 = FACE_OUTER_BOUND ( 'NONE', #69, .T. ) ;
#178 = CC_DESIGN_SECURITY_CLASSIFICATION ( #50, ( #33 ) ) ;
#179 = PERSON_AND_ORGANIZATION_ROLE ( 'creator' ) ;
#180 =( LENGTH_UNIT ( ) NAMED_UNIT ( * ) SI_UNIT ( .MILLI., .METRE. ) );
#181 = MECHANICAL_CONTEXT ( 'NONE', #160, 'mechanical' ) ;
#182 = AXIS2_PLACEMENT_3D ( 'NONE', #53, #122, #41 ) ;
#183 = CARTESIAN_POINT ( 'NONE',  ( 4.189777606611760026E-14, -1.469576158976823947E-15, 12.00000000000000000 ) ) ;
#184 = PERSON_AND_ORGANIZATION ( #118, #186 ) ;
#185 = CC_DESIGN_APPROVAL ( #85, ( #33 ) ) ;
#186 = ORGANIZATION ( 'UNSPECIFIED', 'UNSPECIFIED', '' ) ;
#187 = PRODUCT ( '45351', '45351', '', ( #181 ) ) ;
#188 = DIRECTION ( 'NONE',  ( 4.906827883789175622E-31, 1.000000000000000000, 1.381149264312755674E-16 ) ) ;
#189 = AXIS2_PLACEMENT_3D ( 'NONE', #24, #159, #107 ) ;
#190 = ORIENTED_EDGE ( 'NONE', *, *, #111, .T. ) ;
#191 = EDGE_LOOP ( 'NONE', ( #8 ) ) ;
#192 = ADVANCED_FACE ( 'NONE', ( #196, #158 ), #152, .T. ) ;
#193 = DIRECTION ( 'NONE',  ( 0.0000000000000000000, 1.000000000000000000, 0.0000000000000000000 ) ) ;
#194 = PERSON_AND_ORGANIZATION_ROLE ( 'design_owner' ) ;
#195 = FACE_OUTER_BOUND ( 'NONE', #191, .T. ) ;
#196 = FACE_OUTER_BOUND ( 'NONE', #120, .T. ) ;
#197 = AXIS2_PLACEMENT_3D ( 'NONE', #90, #44, #3 ) ;
#198 = CARTESIAN_POINT ( 'NONE',  ( 4.189777606611760026E-14, 0.7849999999999922595, 12.00000000000000000 ) ) ;
#199 = CARTESIAN_POINT ( 'NONE',  ( 0.0000000000000000000, 0.0000000000000000000, 0.0000000000000000000 ) ) ;
#200 = DIRECTION ( 'NONE',  ( 4.275831445896957731E-31, 1.000000000000000000, 1.224646799147353454E-16 ) ) ;
#201 = CALENDAR_DATE ( 2021, 7, 10 ) ;
#202 = AXIS2_PLACEMENT_3D ( 'NONE', #75, #172, #7 ) ;
#203 = DIRECTION ( 'NONE',  ( 0.0000000000000000000, 1.000000000000000000, 0.0000000000000000000 ) ) ;
#204 = AXIS2_PLACEMENT_3D ( 'NONE', #6, #38, #208 ) ;
#205 = CARTESIAN_POINT ( 'NONE',  ( 1.319779946082704535E-13, -4.629164900776995227E-15, 37.79999999999999716 ) ) ;
#206 = EDGE_LOOP ( 'NONE', ( #89 ) ) ;
#207 = PLANE ( 'NONE',  #62 ) ;
#208 = DIRECTION ( 'NONE',  ( 0.0000000000000000000, 1.000000000000000000, 0.0000000000000000000 ) ) ;
#209 = CIRCLE ( 'NONE', #204, 0.9999999999999970024 ) ;
#210 = CC_DESIGN_PERSON_AND_ORGANIZATION_ASSIGNMENT ( #217, #179, ( #68 ) ) ;
#211 = EDGE_LOOP ( 'NONE', ( #34 ) ) ;
#212 = VERTEX_POINT ( 'NONE', #215 ) ;
#213 = AXIS2_PLACEMENT_3D ( 'NONE', #199, #174, #141 ) ;
#214 = DIRECTION ( 'NONE',  ( -3.491481338843133355E-15, 1.224646799147353207E-16, -1.000000000000000000 ) ) ;
#215 = CARTESIAN_POINT ( 'NONE',  ( 4.189777606611760026E-14, 0.7849999999999922595, 12.00000000000000000 ) ) ;
#216 = DIRECTION ( 'NONE',  ( 0.0000000000000000000, 1.000000000000000000, 0.0000000000000000000 ) ) ;
#217 = PERSON_AND_ORGANIZATION ( #118, #186 ) ;
#218 =( NAMED_UNIT ( * ) PLANE_ANGLE_UNIT ( ) SI_UNIT ( $, .RADIAN. ) );
#219 = MANIFOLD_SOLID_BREP ( 'Corps-Déplacer/Copier1[1]', #15 ) ;
#220 = CALENDAR_DATE ( 2021, 7, 10 ) ;
#221 = DATE_TIME_ROLE ( 'creation_date' ) ;
#222 = ADVANCED_FACE ( 'NONE', ( #57, #105 ), #87, .T. ) ;
#223 = AXIS2_PLACEMENT_3D ( 'NONE', #205, #130, #203 ) ;
ENDSEC;
END-ISO-10303-21;
