ISO-10303-21;
HEADER;
FILE_DESCRIPTION (( 'STEP AP203' ),
    '1' );
FILE_NAME ('45168.step',
    '2021-11-01T10:35:20',
    ( '' ),
    ( '' ),
    'SwSTEP 2.0',
    'SolidWorks 2019',
    '' );
FILE_SCHEMA (( 'CONFIG_CONTROL_DESIGN' ));
ENDSEC;

DATA;
#1 = APPROVAL_STATUS ( 'not_yet_approved' ) ;
#2 = DIRECTION ( 'NONE',  ( 4.275831445896958607E-31, 1.000000000000000000, 1.224646799147353207E-16 ) ) ;
#3 = LOCAL_TIME ( 11, 35, 20.00000000000000000, #79 ) ;
#4 = DESIGN_CONTEXT ( 'detailed design', #168, 'design' ) ;
#5 = EDGE_CURVE ( 'NONE', #124, #124, #180, .T. ) ;
#6 = EDGE_LOOP ( 'NONE', ( #91 ) ) ;
#7 = CC_DESIGN_SECURITY_CLASSIFICATION ( #95, ( #131 ) ) ;
#8 = CARTESIAN_POINT ( 'NONE',  ( 2.444036937190192718E-14, 0.0000000000000000000, 6.999999999999998224 ) ) ;
#9 = EDGE_LOOP ( 'NONE', ( #51 ) ) ;
#10 =( NAMED_UNIT ( * ) SI_UNIT ( $, .STERADIAN. ) SOLID_ANGLE_UNIT ( ) );
#11 = PERSON ( 'UNSPECIFIED', 'UNSPECIFIED', 'UNSPECIFIED', ('UNSPECIFIED'), ('UNSPECIFIED'), ('UNSPECIFIED') ) ;
#12 = ORIENTED_EDGE ( 'NONE', *, *, #210, .T. ) ;
#13 = AXIS2_PLACEMENT_3D ( 'NONE', #128, #126, #76 ) ;
#14 = CYLINDRICAL_SURFACE ( 'NONE', #177, 1.049999999999997824 ) ;
#15 = FACE_OUTER_BOUND ( 'NONE', #143, .T. ) ;
#16 = CARTESIAN_POINT ( 'NONE',  ( 2.444036937190193033E-14, -1.049999999999998934, 6.999999999999999112 ) ) ;
#17 = MANIFOLD_SOLID_BREP ( 'Corps-Déplacer/Copier1[1]', #120 ) ;
#18 = ADVANCED_FACE ( 'NONE', ( #218 ), #114, .T. ) ;
#19 = CYLINDRICAL_SURFACE ( 'NONE', #105, 1.499999999999994893 ) ;
#20 = CALENDAR_DATE ( 2021, 1, 11 ) ;
#21 = CC_DESIGN_PERSON_AND_ORGANIZATION_ASSIGNMENT ( #202, #152, ( #131 ) ) ;
#22 = PERSON_AND_ORGANIZATION ( #11, #35 ) ;
#23 = AXIS2_PLACEMENT_3D ( 'NONE', #83, #221, #41 ) ;
#24 = CIRCLE ( 'NONE', #194, 1.049999999999998046 ) ;
#25 = EDGE_LOOP ( 'NONE', ( #63 ) ) ;
#26 = PRODUCT_DEFINITION_SHAPE ( 'NONE', 'NONE',  #94 ) ;
#27 = FACE_OUTER_BOUND ( 'NONE', #6, .T. ) ;
#28 = CARTESIAN_POINT ( 'NONE',  ( 2.444036937190193033E-14, -1.049999999999998934, 6.999999999999999112 ) ) ;
#29 = PRODUCT_RELATED_PRODUCT_CATEGORY ( 'detail', '', ( #157 ) ) ;
#30 = EDGE_LOOP ( 'NONE', ( #215 ) ) ;
#31 =( NAMED_UNIT ( * ) PLANE_ANGLE_UNIT ( ) SI_UNIT ( $, .RADIAN. ) );
#32 = DIRECTION ( 'NONE',  ( -4.285855558155652404E-31, -1.000000000000000000, -1.227517819005650566E-16 ) ) ;
#33 = EDGE_CURVE ( 'NONE', #49, #49, #24, .T. ) ;
#34 = FACE_OUTER_BOUND ( 'NONE', #104, .T. ) ;
#35 = ORGANIZATION ( 'UNSPECIFIED', 'UNSPECIFIED', '' ) ;
#36 = DIRECTION ( 'NONE',  ( 3.491481338843133355E-15, -1.227517819005651059E-16, 1.000000000000000000 ) ) ;
#37 = DATE_AND_TIME ( #115, #204 ) ;
#38 = APPLICATION_CONTEXT ( 'configuration controlled 3d designs of mechanical parts and assemblies' ) ;
#39 = SHAPE_DEFINITION_REPRESENTATION ( #26, #82 ) ;
#40 = PERSON_AND_ORGANIZATION_ROLE ( 'creator' ) ;
#41 = DIRECTION ( 'NONE',  ( 1.000000000000000000, 0.0000000000000000000, 0.0000000000000000000 ) ) ;
#42 = DIRECTION ( 'NONE',  ( -4.275831445896958607E-31, -1.000000000000000000, -1.224646799147353207E-16 ) ) ;
#43 = CC_DESIGN_APPROVAL ( #166, ( #131 ) ) ;
#44 = DIRECTION ( 'NONE',  ( 3.491481338843133355E-15, -1.224646799147353207E-16, 1.000000000000000000 ) ) ;
#45 = EDGE_CURVE ( 'NONE', #144, #144, #86, .T. ) ;
#46 = CARTESIAN_POINT ( 'NONE',  ( -9.000296672126851218E-31, -1.049999999999997602, -2.577787419911860962E-16 ) ) ;
#47 = CC_DESIGN_DATE_AND_TIME_ASSIGNMENT ( #223, #175, ( #94 ) ) ;
#48 = ADVANCED_FACE ( 'NONE', ( #141, #184 ), #103, .T. ) ;
#49 = VERTEX_POINT ( 'NONE', #28 ) ;
#50 = DIRECTION ( 'NONE',  ( -3.491481338843133355E-15, 1.224646799147353207E-16, -1.000000000000000000 ) ) ;
#51 = ORIENTED_EDGE ( 'NONE', *, *, #45, .T. ) ;
#52 = AXIS2_PLACEMENT_3D ( 'NONE', #148, #44, #109 ) ;
#53 = DATE_TIME_ROLE ( 'classification_date' ) ;
#54 = APPROVAL_ROLE ( '' ) ;
#55 = LOCAL_TIME ( 11, 35, 20.00000000000000000, #98 ) ;
#56 = FACE_OUTER_BOUND ( 'NONE', #122, .T. ) ;
#57 = CARTESIAN_POINT ( 'NONE',  ( 0.0000000000000000000, 0.0000000000000000000, 0.0000000000000000000 ) ) ;
#58 = CC_DESIGN_APPROVAL ( #60, ( #94 ) ) ;
#59 = FACE_OUTER_BOUND ( 'NONE', #72, .T. ) ;
#60 = APPROVAL ( #205, 'UNSPECIFIED' ) ;
#61 = CARTESIAN_POINT ( 'NONE',  ( 3.367631098451401332E-14, 1.499999999999994671, 9.645278813282249786 ) ) ;
#62 = AXIS2_PLACEMENT_3D ( 'NONE', #96, #185, #32 ) ;
#63 = ORIENTED_EDGE ( 'NONE', *, *, #5, .F. ) ;
#64 =( LENGTH_UNIT ( ) NAMED_UNIT ( * ) SI_UNIT ( .MILLI., .METRE. ) );
#65 = CALENDAR_DATE ( 2021, 1, 11 ) ;
#66 = APPROVAL_DATE_TIME ( #101, #60 ) ;
#67 = PERSON_AND_ORGANIZATION ( #11, #35 ) ;
#68 = PERSON_AND_ORGANIZATION ( #11, #35 ) ;
#69 = DIRECTION ( 'NONE',  ( -3.491481338843133355E-15, 1.224646799147353207E-16, -1.000000000000000000 ) ) ;
#70 = APPROVAL_PERSON_ORGANIZATION ( #113, #166, #119 ) ;
#71 = CC_DESIGN_DATE_AND_TIME_ASSIGNMENT ( #156, #53, ( #95 ) ) ;
#72 = EDGE_LOOP ( 'NONE', ( #211 ) ) ;
#73 = APPROVAL_PERSON_ORGANIZATION ( #193, #60, #54 ) ;
#74 = DIRECTION ( 'NONE',  ( -3.491481338843133355E-15, 1.224646799147353207E-16, -1.000000000000000000 ) ) ;
#75 = ORIENTED_EDGE ( 'NONE', *, *, #163, .T. ) ;
#76 = DIRECTION ( 'NONE',  ( 0.0000000000000000000, 1.000000000000000000, 0.0000000000000000000 ) ) ;
#77 = ORIENTED_EDGE ( 'NONE', *, *, #174, .F. ) ;
#78 = DIRECTION ( 'NONE',  ( -4.348155369072391713E-31, -1.000000000000000000, -1.227517819005651059E-16 ) ) ;
#79 = COORDINATED_UNIVERSAL_TIME_OFFSET ( 1, 0, .AHEAD. ) ;
#80 = AXIS2_PLACEMENT_3D ( 'NONE', #92, #164, #146 ) ;
#81 = PERSON_AND_ORGANIZATION ( #11, #35 ) ;
#82 = ADVANCED_BREP_SHAPE_REPRESENTATION ( '45168', ( #17, #88, #23 ), #123 ) ;
#83 = CARTESIAN_POINT ( 'NONE',  ( 0.0000000000000000000, 0.0000000000000000000, 0.0000000000000000000 ) ) ;
#84 = APPROVAL_ROLE ( '' ) ;
#85 = PERSON_AND_ORGANIZATION_ROLE ( 'classification_officer' ) ;
#86 = CIRCLE ( 'NONE', #222, 1.049999999999998046 ) ;
#87 = EDGE_LOOP ( 'NONE', ( #130 ) ) ;
#88 = MANIFOLD_SOLID_BREP ( 'Corps-Déplacer/Copier1[2]', #150 ) ;
#89 = APPROVAL_PERSON_ORGANIZATION ( #68, #190, #84 ) ;
#90 = VERTEX_POINT ( 'NONE', #161 ) ;
#91 = ORIENTED_EDGE ( 'NONE', *, *, #33, .T. ) ;
#92 = CARTESIAN_POINT ( 'NONE',  ( 1.316288464743861212E-13, -4.616918432785521081E-15, 37.69999999999999574 ) ) ;
#93 = FACE_OUTER_BOUND ( 'NONE', #30, .T. ) ;
#94 = PRODUCT_DEFINITION ( 'UNKNOWN', '', #131, #4 ) ;
#95 = SECURITY_CLASSIFICATION ( '', '', #171 ) ;
#96 = CARTESIAN_POINT ( 'NONE',  ( -4.500148336063426485E-31, -6.727682695115255737E-33, -1.288893709955930727E-16 ) ) ;
#97 = CARTESIAN_POINT ( 'NONE',  ( 2.444036937190193033E-14, -8.592624733039555931E-16, 6.999999999999999112 ) ) ;
#98 = COORDINATED_UNIVERSAL_TIME_OFFSET ( 1, 0, .AHEAD. ) ;
#99 = PERSON_AND_ORGANIZATION ( #11, #35 ) ;
#100 = CC_DESIGN_PERSON_AND_ORGANIZATION_ASSIGNMENT ( #99, #40, ( #94 ) ) ;
#101 = DATE_AND_TIME ( #191, #3 ) ;
#102 = CARTESIAN_POINT ( 'NONE',  ( 2.444036937190193033E-14, -8.592624733039555931E-16, 6.999999999999999112 ) ) ;
#103 = CONICAL_SURFACE ( 'NONE', #13, 1.199999999999995959, 0.7853981633974468357 ) ;
#104 = EDGE_LOOP ( 'NONE', ( #182 ) ) ;
#105 = AXIS2_PLACEMENT_3D ( 'NONE', #57, #69, #2 ) ;
#106 = DIRECTION ( 'NONE',  ( 3.491481338843133355E-15, -1.227517819005651059E-16, 1.000000000000000000 ) ) ;
#107 = CC_DESIGN_PERSON_AND_ORGANIZATION_ASSIGNMENT ( #67, #85, ( #95 ) ) ;
#108 = DIRECTION ( 'NONE',  ( 3.491481338843133355E-15, -1.227517819005651059E-16, 1.000000000000000000 ) ) ;
#109 = DIRECTION ( 'NONE',  ( -4.275831445896958607E-31, -1.000000000000000000, -1.224646799147353207E-16 ) ) ;
#110 = ADVANCED_FACE ( 'NONE', ( #217 ), #197, .F. ) ;
#111 = VERTEX_POINT ( 'NONE', #46 ) ;
#112 = DIRECTION ( 'NONE',  ( 4.275831445896958607E-31, 1.000000000000000000, 1.224646799147353207E-16 ) ) ;
#113 = PERSON_AND_ORGANIZATION ( #11, #35 ) ;
#114 = PLANE ( 'NONE',  #199 ) ;
#115 = CALENDAR_DATE ( 2021, 1, 11 ) ;
#116 = DATE_AND_TIME ( #65, #192 ) ;
#117 = CIRCLE ( 'NONE', #145, 1.499999999999994893 ) ;
#118 = AXIS2_PLACEMENT_3D ( 'NONE', #213, #220, #219 ) ;
#119 = APPROVAL_ROLE ( '' ) ;
#120 = CLOSED_SHELL ( 'NONE', ( #137, #48, #110, #203, #153 ) ) ;
#121 = CC_DESIGN_PERSON_AND_ORGANIZATION_ASSIGNMENT ( #81, #187, ( #131 ) ) ;
#122 = EDGE_LOOP ( 'NONE', ( #77 ) ) ;
#123 =( GEOMETRIC_REPRESENTATION_CONTEXT ( 3 ) GLOBAL_UNCERTAINTY_ASSIGNED_CONTEXT ( ( #206 ) ) GLOBAL_UNIT_ASSIGNED_CONTEXT ( ( #64, #31, #10 ) ) REPRESENTATION_CONTEXT ( 'NONE', 'WORKASPACE' ) );
#124 = VERTEX_POINT ( 'NONE', #183 ) ;
#125 = VERTEX_POINT ( 'NONE', #61 ) ;
#126 = DIRECTION ( 'NONE',  ( -3.491481338843133355E-15, 1.224646799147353207E-16, -1.000000000000000000 ) ) ;
#127 = CARTESIAN_POINT ( 'NONE',  ( 3.367631098451401332E-14, -3.247126879542085710E-16, 9.645278813282249786 ) ) ;
#128 = CARTESIAN_POINT ( 'NONE',  ( 1.326762908760390423E-13, -4.653657836759941941E-15, 38.00000000000000000 ) ) ;
#129 = FACE_OUTER_BOUND ( 'NONE', #139, .T. ) ;
#130 = ORIENTED_EDGE ( 'NONE', *, *, #210, .F. ) ;
#131 = PRODUCT_DEFINITION_FORMATION_WITH_SPECIFIED_SOURCE ( 'ANY', '', #157, .NOT_KNOWN. ) ;
#132 = COORDINATED_UNIVERSAL_TIME_OFFSET ( 1, 0, .AHEAD. ) ;
#133 = APPROVAL_STATUS ( 'not_yet_approved' ) ;
#134 = COORDINATED_UNIVERSAL_TIME_OFFSET ( 1, 0, .AHEAD. ) ;
#135 = CIRCLE ( 'NONE', #195, 1.199999999999995959 ) ;
#136 = COORDINATED_UNIVERSAL_TIME_OFFSET ( 1, 0, .AHEAD. ) ;
#137 = ADVANCED_FACE ( 'NONE', ( #34, #15 ), #19, .T. ) ;
#138 = CC_DESIGN_PERSON_AND_ORGANIZATION_ASSIGNMENT ( #22, #149, ( #157 ) ) ;
#139 = EDGE_LOOP ( 'NONE', ( #75 ) ) ;
#140 = DIRECTION ( 'NONE',  ( 0.0000000000000000000, 1.000000000000000000, 0.0000000000000000000 ) ) ;
#141 = FACE_OUTER_BOUND ( 'NONE', #25, .T. ) ;
#142 = CARTESIAN_POINT ( 'NONE',  ( 1.326762908760390423E-13, -4.653657836759941941E-15, 38.00000000000000000 ) ) ;
#143 = EDGE_LOOP ( 'NONE', ( #200 ) ) ;
#144 = VERTEX_POINT ( 'NONE', #16 ) ;
#145 = AXIS2_PLACEMENT_3D ( 'NONE', #127, #160, #140 ) ;
#146 = DIRECTION ( 'NONE',  ( 0.0000000000000000000, 1.000000000000000000, 0.0000000000000000000 ) ) ;
#147 = ADVANCED_FACE ( 'NONE', ( #56 ), #158, .F. ) ;
#148 = CARTESIAN_POINT ( 'NONE',  ( -8.551680453529350800E-31, 2.999525725151307090E-32, -2.449298628175645296E-16 ) ) ;
#149 = PERSON_AND_ORGANIZATION_ROLE ( 'design_owner' ) ;
#150 = CLOSED_SHELL ( 'NONE', ( #18, #209, #147 ) ) ;
#151 = CIRCLE ( 'NONE', #62, 1.049999999999997602 ) ;
#152 = PERSON_AND_ORGANIZATION_ROLE ( 'design_supplier' ) ;
#153 = ADVANCED_FACE ( 'NONE', ( #59 ), #214, .F. ) ;
#154 = CARTESIAN_POINT ( 'NONE',  ( 2.444036937190193033E-14, 1.124819836996386774E-32, 6.999999999999999112 ) ) ;
#155 = CALENDAR_DATE ( 2021, 1, 11 ) ;
#156 = DATE_AND_TIME ( #20, #55 ) ;
#157 = PRODUCT ( '45168', '45168', '', ( #207 ) ) ;
#158 = PLANE ( 'NONE',  #52 ) ;
#159 = ORIENTED_EDGE ( 'NONE', *, *, #45, .F. ) ;
#160 = DIRECTION ( 'NONE',  ( -3.491481338843133355E-15, 1.227517819005651059E-16, -1.000000000000000000 ) ) ;
#161 = CARTESIAN_POINT ( 'NONE',  ( 1.326762908760390423E-13, 1.199999999999991518, 38.00000000000000000 ) ) ;
#162 = CARTESIAN_POINT ( 'NONE',  ( -6.413731847436034514E-31, 0.0000000000000000000, -1.836965810494968570E-16 ) ) ;
#163 = EDGE_CURVE ( 'NONE', #125, #125, #117, .T. ) ;
#164 = DIRECTION ( 'NONE',  ( -3.491481338843133355E-15, 1.224646799147353207E-16, -1.000000000000000000 ) ) ;
#165 = APPLICATION_PROTOCOL_DEFINITION ( 'international standard', 'config_control_design', 1994, #38 ) ;
#166 = APPROVAL ( #1, 'UNSPECIFIED' ) ;
#167 = CC_DESIGN_APPROVAL ( #190, ( #95 ) ) ;
#168 = APPLICATION_CONTEXT ( 'configuration controlled 3d designs of mechanical parts and assemblies' ) ;
#169 = EDGE_LOOP ( 'NONE', ( #12 ) ) ;
#170 = DIRECTION ( 'NONE',  ( 0.0000000000000000000, 1.000000000000000000, 0.0000000000000000000 ) ) ;
#171 = SECURITY_CLASSIFICATION_LEVEL ( 'unclassified' ) ;
#172 = APPROVAL_DATE_TIME ( #116, #190 ) ;
#173 = APPROVAL_DATE_TIME ( #37, #166 ) ;
#174 = EDGE_CURVE ( 'NONE', #111, #111, #151, .T. ) ;
#175 = DATE_TIME_ROLE ( 'creation_date' ) ;
#176 = DIRECTION ( 'NONE',  ( 3.491481338843133355E-15, -1.227517819005651059E-16, 1.000000000000000000 ) ) ;
#177 = AXIS2_PLACEMENT_3D ( 'NONE', #162, #108, #179 ) ;
#178 = LOCAL_TIME ( 11, 35, 20.00000000000000000, #136 ) ;
#179 = DIRECTION ( 'NONE',  ( -4.285855558155653280E-31, -1.000000000000000000, -1.227517819005650812E-16 ) ) ;
#180 = CIRCLE ( 'NONE', #80, 1.499999999999996669 ) ;
#181 = FACE_OUTER_BOUND ( 'NONE', #196, .T. ) ;
#182 = ORIENTED_EDGE ( 'NONE', *, *, #5, .T. ) ;
#183 = CARTESIAN_POINT ( 'NONE',  ( 1.316288464743861212E-13, 1.499999999999992228, 37.69999999999999574 ) ) ;
#184 = FACE_BOUND ( 'NONE', #169, .T. ) ;
#185 = DIRECTION ( 'NONE',  ( 3.491481338843133355E-15, -1.227517819005651059E-16, 1.000000000000000000 ) ) ;
#186 = TOROIDAL_SURFACE ( 'NONE', #212, 9.049999999999997158, 8.000000000000000000 ) ;
#187 = PERSON_AND_ORGANIZATION_ROLE ( 'creator' ) ;
#188 = DIRECTION ( 'NONE',  ( 0.0000000000000000000, -1.000000000000000000, 0.0000000000000000000 ) ) ;
#189 = APPLICATION_PROTOCOL_DEFINITION ( 'international standard', 'config_control_design', 1994, #168 ) ;
#190 = APPROVAL ( #133, 'UNSPECIFIED' ) ;
#191 = CALENDAR_DATE ( 2021, 1, 11 ) ;
#192 = LOCAL_TIME ( 11, 35, 20.00000000000000000, #134 ) ;
#193 = PERSON_AND_ORGANIZATION ( #11, #35 ) ;
#194 = AXIS2_PLACEMENT_3D ( 'NONE', #102, #176, #188 ) ;
#195 = AXIS2_PLACEMENT_3D ( 'NONE', #142, #74, #170 ) ;
#196 = EDGE_LOOP ( 'NONE', ( #159 ) ) ;
#197 = PLANE ( 'NONE',  #216 ) ;
#198 = DIRECTION ( 'NONE',  ( 0.0000000000000000000, -1.000000000000000000, 0.0000000000000000000 ) ) ;
#199 = AXIS2_PLACEMENT_3D ( 'NONE', #154, #208, #42 ) ;
#200 = ORIENTED_EDGE ( 'NONE', *, *, #163, .F. ) ;
#201 = CARTESIAN_POINT ( 'NONE',  ( 1.326762908760390423E-13, 8.998558695971047118E-33, 38.00000000000000000 ) ) ;
#202 = PERSON_AND_ORGANIZATION ( #11, #35 ) ;
#203 = ADVANCED_FACE ( 'NONE', ( #27, #129 ), #186, .F. ) ;
#204 = LOCAL_TIME ( 11, 35, 20.00000000000000000, #132 ) ;
#205 = APPROVAL_STATUS ( 'not_yet_approved' ) ;
#206 = UNCERTAINTY_MEASURE_WITH_UNIT (LENGTH_MEASURE( 1.000000000000000082E-05 ), #64, 'distance_accuracy_value', 'NONE');
#207 = MECHANICAL_CONTEXT ( 'NONE', #38, 'mechanical' ) ;
#208 = DIRECTION ( 'NONE',  ( 3.491481338843133355E-15, -1.224646799147353207E-16, 1.000000000000000000 ) ) ;
#209 = ADVANCED_FACE ( 'NONE', ( #93, #181 ), #14, .T. ) ;
#210 = EDGE_CURVE ( 'NONE', #90, #90, #135, .T. ) ;
#211 = ORIENTED_EDGE ( 'NONE', *, *, #33, .F. ) ;
#212 = AXIS2_PLACEMENT_3D ( 'NONE', #8, #36, #78 ) ;
#213 = CARTESIAN_POINT ( 'NONE',  ( 2.444036937190193033E-14, 1.124819836996386774E-32, 6.999999999999999112 ) ) ;
#214 = PLANE ( 'NONE',  #118 ) ;
#215 = ORIENTED_EDGE ( 'NONE', *, *, #174, .T. ) ;
#216 = AXIS2_PLACEMENT_3D ( 'NONE', #201, #50, #112 ) ;
#217 = FACE_OUTER_BOUND ( 'NONE', #87, .T. ) ;
#218 = FACE_OUTER_BOUND ( 'NONE', #9, .T. ) ;
#219 = DIRECTION ( 'NONE',  ( -4.275831445896958607E-31, -1.000000000000000000, -1.224646799147353207E-16 ) ) ;
#220 = DIRECTION ( 'NONE',  ( 3.491481338843133355E-15, -1.224646799147353207E-16, 1.000000000000000000 ) ) ;
#221 = DIRECTION ( 'NONE',  ( 0.0000000000000000000, 0.0000000000000000000, 1.000000000000000000 ) ) ;
#222 = AXIS2_PLACEMENT_3D ( 'NONE', #97, #106, #198 ) ;
#223 = DATE_AND_TIME ( #155, #178 ) ;
ENDSEC;
END-ISO-10303-21;
