ISO-10303-21;
HEADER;
FILE_DESCRIPTION (( 'STEP AP203' ),
    '1' );
FILE_NAME ('45075.step',
    '2021-10-07T13:48:04',
    ( '' ),
    ( '' ),
    'SwSTEP 2.0',
    'SolidWorks 2019',
    '' );
FILE_SCHEMA (( 'CONFIG_CONTROL_DESIGN' ));
ENDSEC;

DATA;
#1 = ORIENTED_EDGE ( 'NONE', *, *, #8, .F. ) ;
#2 = APPROVAL_ROLE ( '' ) ;
#3 = EDGE_CURVE ( 'NONE', #182, #182, #72, .T. ) ;
#4 = PRODUCT_DEFINITION_FORMATION_WITH_SPECIFIED_SOURCE ( 'ANY', '', #191, .NOT_KNOWN. ) ;
#5 = COORDINATED_UNIVERSAL_TIME_OFFSET ( 1, 0, .AHEAD. ) ;
#6 = DIRECTION ( 'NONE',  ( 0.0000000000000000000, 1.000000000000000000, 0.0000000000000000000 ) ) ;
#7 = APPROVAL_PERSON_ORGANIZATION ( #136, #67, #2 ) ;
#8 = EDGE_CURVE ( 'NONE', #115, #115, #200, .T. ) ;
#9 = FACE_OUTER_BOUND ( 'NONE', #145, .T. ) ;
#10 = EDGE_LOOP ( 'NONE', ( #60 ) ) ;
#11 = DIRECTION ( 'NONE',  ( 0.0000000000000000000, -1.000000000000000000, 0.0000000000000000000 ) ) ;
#12 = CYLINDRICAL_SURFACE ( 'NONE', #185, 0.9999999999999995559 ) ;
#13 = AXIS2_PLACEMENT_3D ( 'NONE', #83, #165, #11 ) ;
#14 = CARTESIAN_POINT ( 'NONE',  ( 1.804188529179204137E-15, -6.328241490901899433E-17, 0.5167401323637041965 ) ) ;
#15 = CARTESIAN_POINT ( 'NONE',  ( 1.804188529179204531E-15, 0.8599999999999942135, 0.5167401323637043076 ) ) ;
#16 = PERSON_AND_ORGANIZATION_ROLE ( 'creator' ) ;
#17 = PERSON_AND_ORGANIZATION_ROLE ( 'design_supplier' ) ;
#18 = CLOSED_SHELL ( 'NONE', ( #121, #202, #41, #158, #222 ) ) ;
#19 = PERSON_AND_ORGANIZATION ( #123, #84 ) ;
#20 = AXIS2_PLACEMENT_3D ( 'NONE', #218, #69, #62 ) ;
#21 = PERSON_AND_ORGANIZATION ( #123, #84 ) ;
#22 =( NAMED_UNIT ( * ) PLANE_ANGLE_UNIT ( ) SI_UNIT ( $, .RADIAN. ) );
#23 = CC_DESIGN_DATE_AND_TIME_ASSIGNMENT ( #42, #53, ( #61 ) ) ;
#24 = PRODUCT_DEFINITION_SHAPE ( 'NONE', 'NONE',  #102 ) ;
#25 = DIRECTION ( 'NONE',  ( 0.0000000000000000000, 0.0000000000000000000, 1.000000000000000000 ) ) ;
#26 = COORDINATED_UNIVERSAL_TIME_OFFSET ( 1, 0, .AHEAD. ) ;
#27 = EDGE_CURVE ( 'NONE', #35, #35, #161, .T. ) ;
#28 = DIRECTION ( 'NONE',  ( -3.491481338843133355E-15, 1.224646799147353207E-16, -1.000000000000000000 ) ) ;
#29 = AXIS2_PLACEMENT_3D ( 'NONE', #139, #25, #187 ) ;
#30 = AXIS2_PLACEMENT_3D ( 'NONE', #48, #112, #214 ) ;
#31 = DIRECTION ( 'NONE',  ( -4.478906847412206363E-31, -1.000000000000000000, -1.260700200564548473E-16 ) ) ;
#32 = ADVANCED_BREP_SHAPE_REPRESENTATION ( '45075', ( #203, #138, #29 ), #57 ) ;
#33 = CARTESIAN_POINT ( 'NONE',  ( 1.326762908760390423E-13, -4.653657836759941941E-15, 38.00000000000000000 ) ) ;
#34 = ORIENTED_EDGE ( 'NONE', *, *, #3, .T. ) ;
#35 = VERTEX_POINT ( 'NONE', #163 ) ;
#36 = LOCAL_TIME ( 15, 48, 4.000000000000000000, #119 ) ;
#37 = CARTESIAN_POINT ( 'NONE',  ( 4.189777606611760026E-14, 6.448967065445934891E-33, 12.00000000000000000 ) ) ;
#38 = DATE_AND_TIME ( #93, #36 ) ;
#39 = AXIS2_PLACEMENT_3D ( 'NONE', #107, #95, #122 ) ;
#40 = PERSON_AND_ORGANIZATION ( #123, #84 ) ;
#41 = ADVANCED_FACE ( 'NONE', ( #150, #131 ), #12, .T. ) ;
#42 = DATE_AND_TIME ( #204, #183 ) ;
#43 = ORIENTED_EDGE ( 'NONE', *, *, #8, .T. ) ;
#44 = ORIENTED_EDGE ( 'NONE', *, *, #27, .T. ) ;
#45 = CARTESIAN_POINT ( 'NONE',  ( 1.804188529179204137E-15, -6.328241490901899433E-17, 0.5167401323637041965 ) ) ;
#46 = CONICAL_SURFACE ( 'NONE', #173, 0.8000000000000009326, 0.7853981633974512766 ) ;
#47 = PRODUCT_RELATED_PRODUCT_CATEGORY ( 'detail', '', ( #191 ) ) ;
#48 = CARTESIAN_POINT ( 'NONE',  ( 0.0000000000000000000, 0.0000000000000000000, 0.0000000000000000000 ) ) ;
#49 = EDGE_LOOP ( 'NONE', ( #181 ) ) ;
#50 = PLANE ( 'NONE',  #20 ) ;
#51 = DIRECTION ( 'NONE',  ( -3.491481338843133355E-15, 1.224646799147353207E-16, -1.000000000000000000 ) ) ;
#52 = CC_DESIGN_DATE_AND_TIME_ASSIGNMENT ( #155, #221, ( #102 ) ) ;
#53 = DATE_TIME_ROLE ( 'classification_date' ) ;
#54 = APPROVAL_STATUS ( 'not_yet_approved' ) ;
#55 = APPROVAL_STATUS ( 'not_yet_approved' ) ;
#56 = PERSON_AND_ORGANIZATION_ROLE ( 'classification_officer' ) ;
#57 =( GEOMETRIC_REPRESENTATION_CONTEXT ( 3 ) GLOBAL_UNCERTAINTY_ASSIGNED_CONTEXT ( ( #130 ) ) GLOBAL_UNIT_ASSIGNED_CONTEXT ( ( #76, #22, #170 ) ) REPRESENTATION_CONTEXT ( 'NONE', 'WORKASPACE' ) );
#58 = ORIENTED_EDGE ( 'NONE', *, *, #215, .T. ) ;
#59 = ORIENTED_EDGE ( 'NONE', *, *, #27, .F. ) ;
#60 = ORIENTED_EDGE ( 'NONE', *, *, #178, .F. ) ;
#61 = SECURITY_CLASSIFICATION ( '', '', #120 ) ;
#62 = DIRECTION ( 'NONE',  ( -4.275831445896958607E-31, -1.000000000000000000, -1.224646799147353207E-16 ) ) ;
#63 = EDGE_CURVE ( 'NONE', #99, #99, #208, .T. ) ;
#64 = DIRECTION ( 'NONE',  ( 3.491481338843133355E-15, -1.224646799147353207E-16, 1.000000000000000000 ) ) ;
#65 = CC_DESIGN_SECURITY_CLASSIFICATION ( #61, ( #4 ) ) ;
#66 = FACE_OUTER_BOUND ( 'NONE', #77, .T. ) ;
#67 = APPROVAL ( #137, 'UNSPECIFIED' ) ;
#68 = ORIENTED_EDGE ( 'NONE', *, *, #178, .T. ) ;
#69 = DIRECTION ( 'NONE',  ( 3.491481338843133355E-15, -1.224646799147353207E-16, 1.000000000000000000 ) ) ;
#70 = DIRECTION ( 'NONE',  ( -4.275831445896958607E-31, -1.000000000000000000, -1.224646799147353207E-16 ) ) ;
#71 = COORDINATED_UNIVERSAL_TIME_OFFSET ( 1, 0, .AHEAD. ) ;
#72 = CIRCLE ( 'NONE', #39, 0.9999999999999981126 ) ;
#73 = MECHANICAL_CONTEXT ( 'NONE', #113, 'mechanical' ) ;
#74 = APPROVAL_DATE_TIME ( #223, #124 ) ;
#75 = APPROVAL_ROLE ( '' ) ;
#76 =( LENGTH_UNIT ( ) NAMED_UNIT ( * ) SI_UNIT ( .MILLI., .METRE. ) );
#77 = EDGE_LOOP ( 'NONE', ( #1 ) ) ;
#78 = ORIENTED_EDGE ( 'NONE', *, *, #63, .F. ) ;
#79 = ORIENTED_EDGE ( 'NONE', *, *, #3, .F. ) ;
#80 = FACE_OUTER_BOUND ( 'NONE', #108, .T. ) ;
#81 = CARTESIAN_POINT ( 'NONE',  ( 1.326762908760390423E-13, 5.999039130647367482E-33, 38.00000000000000000 ) ) ;
#82 = EDGE_LOOP ( 'NONE', ( #59 ) ) ;
#83 = CARTESIAN_POINT ( 'NONE',  ( 4.274441529627531410E-14, -1.499272265661122227E-15, 12.24248711305964932 ) ) ;
#84 = ORGANIZATION ( 'UNSPECIFIED', 'UNSPECIFIED', '' ) ;
#85 = CONICAL_SURFACE ( 'NONE', #13, 0.9999999999999981126, 0.5235987755982930425 ) ;
#86 = CARTESIAN_POINT ( 'NONE',  ( 4.189777606611760026E-14, -1.469576158976823947E-15, 12.00000000000000000 ) ) ;
#87 = DIRECTION ( 'NONE',  ( 4.275831445896958607E-31, 1.000000000000000000, 1.224646799147353207E-16 ) ) ;
#88 = CALENDAR_DATE ( 2021, 7, 10 ) ;
#89 = CONICAL_SURFACE ( 'NONE', #111, 0.8599999999999943245, 1.029744258676649649 ) ;
#90 = CALENDAR_DATE ( 2021, 7, 10 ) ;
#91 = CC_DESIGN_PERSON_AND_ORGANIZATION_ASSIGNMENT ( #40, #154, ( #4 ) ) ;
#92 = CARTESIAN_POINT ( 'NONE',  ( 1.319779946082704535E-13, 0.9999999999999963363, 37.79999999999999716 ) ) ;
#93 = CALENDAR_DATE ( 2021, 7, 10 ) ;
#94 = CLOSED_SHELL ( 'NONE', ( #152, #142, #109 ) ) ;
#95 = DIRECTION ( 'NONE',  ( -3.491481338843133355E-15, 1.224646799147353207E-16, -1.000000000000000000 ) ) ;
#96 = CARTESIAN_POINT ( 'NONE',  ( 4.274441529627531410E-14, 0.9999999999999965583, 12.24248711305964932 ) ) ;
#97 = DIRECTION ( 'NONE',  ( 0.0000000000000000000, 1.000000000000000000, 0.0000000000000000000 ) ) ;
#98 = FACE_OUTER_BOUND ( 'NONE', #210, .T. ) ;
#99 = VERTEX_POINT ( 'NONE', #100 ) ;
#100 = CARTESIAN_POINT ( 'NONE',  ( 4.189777606611760026E-14, 0.8599999999999944356, 12.00000000000000000 ) ) ;
#101 = PERSON_AND_ORGANIZATION ( #123, #84 ) ;
#102 = PRODUCT_DEFINITION ( 'UNKNOWN', '', #4, #133 ) ;
#103 = APPLICATION_PROTOCOL_DEFINITION ( 'international standard', 'config_control_design', 1994, #216 ) ;
#104 = PERSON_AND_ORGANIZATION ( #123, #84 ) ;
#105 = PERSON_AND_ORGANIZATION_ROLE ( 'design_owner' ) ;
#106 = SHAPE_DEFINITION_REPRESENTATION ( #24, #32 ) ;
#107 = CARTESIAN_POINT ( 'NONE',  ( 4.274441529627531410E-14, -1.499272265661122227E-15, 12.24248711305964932 ) ) ;
#108 = EDGE_LOOP ( 'NONE', ( #128 ) ) ;
#109 = ADVANCED_FACE ( 'NONE', ( #153 ), #197, .T. ) ;
#110 = FACE_OUTER_BOUND ( 'NONE', #49, .T. ) ;
#111 = AXIS2_PLACEMENT_3D ( 'NONE', #45, #180, #31 ) ;
#112 = DIRECTION ( 'NONE',  ( -3.491481338843133355E-15, 1.224646799147353207E-16, -1.000000000000000000 ) ) ;
#113 = APPLICATION_CONTEXT ( 'configuration controlled 3d designs of mechanical parts and assemblies' ) ;
#114 = PLANE ( 'NONE',  #141 ) ;
#115 = VERTEX_POINT ( 'NONE', #184 ) ;
#116 = AXIS2_PLACEMENT_3D ( 'NONE', #167, #198, #209 ) ;
#117 = DIRECTION ( 'NONE',  ( 4.478906847412206363E-31, 1.000000000000000000, 1.260700200564548473E-16 ) ) ;
#118 = COORDINATED_UNIVERSAL_TIME_OFFSET ( 1, 0, .AHEAD. ) ;
#119 = COORDINATED_UNIVERSAL_TIME_OFFSET ( 1, 0, .AHEAD. ) ;
#120 = SECURITY_CLASSIFICATION_LEVEL ( 'unclassified' ) ;
#121 = ADVANCED_FACE ( 'NONE', ( #80 ), #50, .F. ) ;
#122 = DIRECTION ( 'NONE',  ( 0.0000000000000000000, 1.000000000000000000, 0.0000000000000000000 ) ) ;
#123 = PERSON ( 'UNSPECIFIED', 'UNSPECIFIED', 'UNSPECIFIED', ('UNSPECIFIED'), ('UNSPECIFIED'), ('UNSPECIFIED') ) ;
#124 = APPROVAL ( #54, 'UNSPECIFIED' ) ;
#125 = APPROVAL_PERSON_ORGANIZATION ( #19, #124, #156 ) ;
#126 = CC_DESIGN_PERSON_AND_ORGANIZATION_ASSIGNMENT ( #104, #56, ( #61 ) ) ;
#127 = FACE_OUTER_BOUND ( 'NONE', #10, .T. ) ;
#128 = ORIENTED_EDGE ( 'NONE', *, *, #63, .T. ) ;
#129 = DIRECTION ( 'NONE',  ( 0.0000000000000000000, 1.000000000000000000, 0.0000000000000000000 ) ) ;
#130 = UNCERTAINTY_MEASURE_WITH_UNIT (LENGTH_MEASURE( 1.000000000000000082E-05 ), #76, 'distance_accuracy_value', 'NONE');
#131 = FACE_OUTER_BOUND ( 'NONE', #213, .T. ) ;
#132 = FACE_BOUND ( 'NONE', #206, .T. ) ;
#133 = DESIGN_CONTEXT ( 'detailed design', #216, 'design' ) ;
#134 = DIRECTION ( 'NONE',  ( -3.491481338843133355E-15, 1.224646799147353207E-16, -1.000000000000000000 ) ) ;
#135 = APPROVAL ( #55, 'UNSPECIFIED' ) ;
#136 = PERSON_AND_ORGANIZATION ( #123, #84 ) ;
#137 = APPROVAL_STATUS ( 'not_yet_approved' ) ;
#138 = MANIFOLD_SOLID_BREP ( 'Corps-Déplacer/Copier1[2]', #94 ) ;
#139 = CARTESIAN_POINT ( 'NONE',  ( 0.0000000000000000000, 0.0000000000000000000, 0.0000000000000000000 ) ) ;
#140 = CC_DESIGN_APPROVAL ( #67, ( #102 ) ) ;
#141 = AXIS2_PLACEMENT_3D ( 'NONE', #81, #51, #211 ) ;
#142 = ADVANCED_FACE ( 'NONE', ( #127, #9 ), #194, .T. ) ;
#143 = LOCAL_TIME ( 15, 48, 4.000000000000000000, #118 ) ;
#144 = CIRCLE ( 'NONE', #177, 0.8599999999999943245 ) ;
#145 = EDGE_LOOP ( 'NONE', ( #44 ) ) ;
#146 = APPROVAL_PERSON_ORGANIZATION ( #21, #135, #75 ) ;
#147 = FACE_OUTER_BOUND ( 'NONE', #190, .T. ) ;
#148 = DIRECTION ( 'NONE',  ( -3.491481338843133355E-15, 1.224646799147353207E-16, -1.000000000000000000 ) ) ;
#149 = CC_DESIGN_APPROVAL ( #135, ( #61 ) ) ;
#150 = FACE_OUTER_BOUND ( 'NONE', #195, .T. ) ;
#151 = CARTESIAN_POINT ( 'NONE',  ( 1.319779946082704535E-13, -4.629164900776995227E-15, 37.79999999999999716 ) ) ;
#152 = ADVANCED_FACE ( 'NONE', ( #147 ), #89, .T. ) ;
#153 = FACE_OUTER_BOUND ( 'NONE', #82, .T. ) ;
#154 = PERSON_AND_ORGANIZATION_ROLE ( 'creator' ) ;
#155 = DATE_AND_TIME ( #88, #199 ) ;
#156 = APPROVAL_ROLE ( '' ) ;
#157 = PERSON_AND_ORGANIZATION ( #123, #84 ) ;
#158 = ADVANCED_FACE ( 'NONE', ( #110, #179 ), #46, .T. ) ;
#159 = APPROVAL_DATE_TIME ( #38, #67 ) ;
#160 = CC_DESIGN_APPROVAL ( #124, ( #4 ) ) ;
#161 = CIRCLE ( 'NONE', #162, 0.8599999999999959899 ) ;
#162 = AXIS2_PLACEMENT_3D ( 'NONE', #86, #134, #193 ) ;
#163 = CARTESIAN_POINT ( 'NONE',  ( 4.189777606611760026E-14, 0.8599999999999944356, 12.00000000000000000 ) ) ;
#164 = CC_DESIGN_PERSON_AND_ORGANIZATION_ASSIGNMENT ( #101, #16, ( #102 ) ) ;
#165 = DIRECTION ( 'NONE',  ( 3.491481338843133355E-15, -1.224646799147353207E-16, 1.000000000000000000 ) ) ;
#166 = DIRECTION ( 'NONE',  ( -3.491481338843133355E-15, 1.224646799147353207E-16, -1.000000000000000000 ) ) ;
#167 = CARTESIAN_POINT ( 'NONE',  ( 4.189777606611760026E-14, -1.469576158976823947E-15, 12.00000000000000000 ) ) ;
#168 = AXIS2_PLACEMENT_3D ( 'NONE', #151, #28, #129 ) ;
#169 = VERTEX_POINT ( 'NONE', #15 ) ;
#170 =( NAMED_UNIT ( * ) SI_UNIT ( $, .STERADIAN. ) SOLID_ANGLE_UNIT ( ) );
#171 = PERSON_AND_ORGANIZATION ( #123, #84 ) ;
#172 = VERTEX_POINT ( 'NONE', #92 ) ;
#173 = AXIS2_PLACEMENT_3D ( 'NONE', #33, #201, #97 ) ;
#174 = AXIS2_PLACEMENT_3D ( 'NONE', #37, #64, #70 ) ;
#175 = CARTESIAN_POINT ( 'NONE',  ( 1.326762908760390423E-13, -4.653657836759941941E-15, 38.00000000000000000 ) ) ;
#176 = EDGE_LOOP ( 'NONE', ( #43 ) ) ;
#177 = AXIS2_PLACEMENT_3D ( 'NONE', #14, #148, #117 ) ;
#178 = EDGE_CURVE ( 'NONE', #169, #169, #144, .T. ) ;
#179 = FACE_BOUND ( 'NONE', #176, .T. ) ;
#180 = DIRECTION ( 'NONE',  ( 3.491481338843133355E-15, -1.224646799147353207E-16, 1.000000000000000000 ) ) ;
#181 = ORIENTED_EDGE ( 'NONE', *, *, #215, .F. ) ;
#182 = VERTEX_POINT ( 'NONE', #96 ) ;
#183 = LOCAL_TIME ( 15, 48, 4.000000000000000000, #26 ) ;
#184 = CARTESIAN_POINT ( 'NONE',  ( 1.326762908760390423E-13, 0.7999999999999962697, 38.00000000000000000 ) ) ;
#185 = AXIS2_PLACEMENT_3D ( 'NONE', #217, #166, #87 ) ;
#186 = DATE_AND_TIME ( #188, #212 ) ;
#187 = DIRECTION ( 'NONE',  ( 1.000000000000000000, 0.0000000000000000000, 0.0000000000000000000 ) ) ;
#188 = CALENDAR_DATE ( 2021, 7, 10 ) ;
#189 = APPLICATION_PROTOCOL_DEFINITION ( 'international standard', 'config_control_design', 1994, #113 ) ;
#190 = EDGE_LOOP ( 'NONE', ( #68 ) ) ;
#191 = PRODUCT ( '45075', '45075', '', ( #73 ) ) ;
#192 = CC_DESIGN_PERSON_AND_ORGANIZATION_ASSIGNMENT ( #171, #17, ( #4 ) ) ;
#193 = DIRECTION ( 'NONE',  ( 0.0000000000000000000, 1.000000000000000000, 0.0000000000000000000 ) ) ;
#194 = CYLINDRICAL_SURFACE ( 'NONE', #30, 0.8599999999999951017 ) ;
#195 = EDGE_LOOP ( 'NONE', ( #79 ) ) ;
#196 = CC_DESIGN_PERSON_AND_ORGANIZATION_ASSIGNMENT ( #157, #105, ( #191 ) ) ;
#197 = PLANE ( 'NONE',  #174 ) ;
#198 = DIRECTION ( 'NONE',  ( -3.491481338843133355E-15, 1.224646799147353207E-16, -1.000000000000000000 ) ) ;
#199 = LOCAL_TIME ( 15, 48, 4.000000000000000000, #5 ) ;
#200 = CIRCLE ( 'NONE', #220, 0.8000000000000009326 ) ;
#201 = DIRECTION ( 'NONE',  ( -3.491481338843133355E-15, 1.224646799147353207E-16, -1.000000000000000000 ) ) ;
#202 = ADVANCED_FACE ( 'NONE', ( #132, #98 ), #85, .T. ) ;
#203 = MANIFOLD_SOLID_BREP ( 'Corps-Déplacer/Copier1[1]', #18 ) ;
#204 = CALENDAR_DATE ( 2021, 7, 10 ) ;
#205 = CIRCLE ( 'NONE', #168, 1.000000000000000888 ) ;
#206 = EDGE_LOOP ( 'NONE', ( #78 ) ) ;
#207 = DIRECTION ( 'NONE',  ( -3.491481338843133355E-15, 1.224646799147353207E-16, -1.000000000000000000 ) ) ;
#208 = CIRCLE ( 'NONE', #116, 0.8599999999999959899 ) ;
#209 = DIRECTION ( 'NONE',  ( 0.0000000000000000000, 1.000000000000000000, 0.0000000000000000000 ) ) ;
#210 = EDGE_LOOP ( 'NONE', ( #34 ) ) ;
#211 = DIRECTION ( 'NONE',  ( 4.275831445896958607E-31, 1.000000000000000000, 1.224646799147353207E-16 ) ) ;
#212 = LOCAL_TIME ( 15, 48, 4.000000000000000000, #71 ) ;
#213 = EDGE_LOOP ( 'NONE', ( #58 ) ) ;
#214 = DIRECTION ( 'NONE',  ( 4.275831445896958607E-31, 1.000000000000000000, 1.224646799147353207E-16 ) ) ;
#215 = EDGE_CURVE ( 'NONE', #172, #172, #205, .T. ) ;
#216 = APPLICATION_CONTEXT ( 'configuration controlled 3d designs of mechanical parts and assemblies' ) ;
#217 = CARTESIAN_POINT ( 'NONE',  ( 0.0000000000000000000, 0.0000000000000000000, 0.0000000000000000000 ) ) ;
#218 = CARTESIAN_POINT ( 'NONE',  ( 4.189777606611760026E-14, 6.448967065445934891E-33, 12.00000000000000000 ) ) ;
#219 = APPROVAL_DATE_TIME ( #186, #135 ) ;
#220 = AXIS2_PLACEMENT_3D ( 'NONE', #175, #207, #6 ) ;
#221 = DATE_TIME_ROLE ( 'creation_date' ) ;
#222 = ADVANCED_FACE ( 'NONE', ( #66 ), #114, .F. ) ;
#223 = DATE_AND_TIME ( #90, #143 ) ;
ENDSEC;
END-ISO-10303-21;
