ISO-10303-21;
HEADER;
FILE_DESCRIPTION (( 'STEP AP203' ),
    '1' );
FILE_NAME ('450.step',
    '2021-10-07T13:48:03',
    ( '' ),
    ( '' ),
    'SwSTEP 2.0',
    'SolidWorks 2019',
    '' );
FILE_SCHEMA (( 'CONFIG_CONTROL_DESIGN' ));
ENDSEC;

DATA;
#1 = CIRCLE ( 'NONE', #117, 0.3499999999999983680 ) ;
#2 = CARTESIAN_POINT ( 'NONE',  ( 1.043952920314096936E-13, -3.661693929450586610E-15, 29.90000000000000213 ) ) ;
#3 = CARTESIAN_POINT ( 'NONE',  ( 0.0000000000000000000, 0.0000000000000000000, 0.0000000000000000000 ) ) ;
#4 = CC_DESIGN_PERSON_AND_ORGANIZATION_ASSIGNMENT ( #183, #11, ( #156 ) ) ;
#5 = CARTESIAN_POINT ( 'NONE',  ( 2.150685336005774440E-14, -7.543588686586862949E-16, 6.159807621135337641 ) ) ;
#6 = DIRECTION ( 'NONE',  ( -3.491481338843133355E-15, 1.224646799147353207E-16, -1.000000000000000000 ) ) ;
#7 = CC_DESIGN_PERSON_AND_ORGANIZATION_ASSIGNMENT ( #95, #112, ( #190 ) ) ;
#8 =( LENGTH_UNIT ( ) NAMED_UNIT ( * ) SI_UNIT ( .MILLI., .METRE. ) );
#9 = APPLICATION_PROTOCOL_DEFINITION ( 'international standard', 'config_control_design', 1994, #180 ) ;
#10 = PERSON_AND_ORGANIZATION ( #45, #109 ) ;
#11 = PERSON_AND_ORGANIZATION_ROLE ( 'classification_officer' ) ;
#12 = APPLICATION_CONTEXT ( 'configuration controlled 3d designs of mechanical parts and assemblies' ) ;
#13 = CLOSED_SHELL ( 'NONE', ( #66, #16, #19 ) ) ;
#14 = CONICAL_SURFACE ( 'NONE', #223, 0.4999999999999962252, 0.2617993877991432461 ) ;
#15 = DIRECTION ( 'NONE',  ( 0.0000000000000000000, -1.000000000000000000, 0.0000000000000000000 ) ) ;
#16 = ADVANCED_FACE ( 'NONE', ( #146, #47 ), #30, .T. ) ;
#17 = CARTESIAN_POINT ( 'NONE',  ( 0.0000000000000000000, 0.0000000000000000000, 0.0000000000000000000 ) ) ;
#18 = FACE_OUTER_BOUND ( 'NONE', #202, .T. ) ;
#19 = ADVANCED_FACE ( 'NONE', ( #210 ), #102, .T. ) ;
#20 = DIRECTION ( 'NONE',  ( 0.0000000000000000000, 1.000000000000000000, 0.0000000000000000000 ) ) ;
#21 = DIRECTION ( 'NONE',  ( -3.491481338843133355E-15, 1.224646799147353207E-16, -1.000000000000000000 ) ) ;
#22 = CC_DESIGN_APPROVAL ( #81, ( #156 ) ) ;
#23 = DIRECTION ( 'NONE',  ( 0.0000000000000000000, 0.0000000000000000000, 1.000000000000000000 ) ) ;
#24 = COORDINATED_UNIVERSAL_TIME_OFFSET ( 1, 0, .AHEAD. ) ;
#25 = PERSON_AND_ORGANIZATION ( #45, #109 ) ;
#26 = DIRECTION ( 'NONE',  ( -3.491481338843133355E-15, 1.224646799147353207E-16, -1.000000000000000000 ) ) ;
#27 =( NAMED_UNIT ( * ) PLANE_ANGLE_UNIT ( ) SI_UNIT ( $, .RADIAN. ) );
#28 = PRODUCT_DEFINITION_FORMATION_WITH_SPECIFIED_SOURCE ( 'ANY', '', #190, .NOT_KNOWN. ) ;
#29 = ORIENTED_EDGE ( 'NONE', *, *, #33, .F. ) ;
#30 = CYLINDRICAL_SURFACE ( 'NONE', #58, 0.3499999999999978684 ) ;
#31 = DIRECTION ( 'NONE',  ( 4.275831445896958607E-31, 1.000000000000000000, 1.224646799147353207E-16 ) ) ;
#32 = DIRECTION ( 'NONE',  ( -4.275831445896958607E-31, -1.000000000000000000, -1.224646799147353207E-16 ) ) ;
#33 = EDGE_CURVE ( 'NONE', #164, #164, #218, .T. ) ;
#34 = ORIENTED_EDGE ( 'NONE', *, *, #128, .T. ) ;
#35 = VERTEX_POINT ( 'NONE', #48 ) ;
#36 = PERSON_AND_ORGANIZATION_ROLE ( 'creator' ) ;
#37 = PERSON_AND_ORGANIZATION ( #45, #109 ) ;
#38 = COORDINATED_UNIVERSAL_TIME_OFFSET ( 1, 0, .AHEAD. ) ;
#39 = CIRCLE ( 'NONE', #191, 0.3999999999999989675 ) ;
#40 = CALENDAR_DATE ( 2021, 7, 10 ) ;
#41 = APPROVAL_ROLE ( '' ) ;
#42 = ORIENTED_EDGE ( 'NONE', *, *, #217, .F. ) ;
#43 = FACE_OUTER_BOUND ( 'NONE', #79, .T. ) ;
#44 = DIRECTION ( 'NONE',  ( 4.275831445896958607E-31, 1.000000000000000000, 1.224646799147353207E-16 ) ) ;
#45 = PERSON ( 'UNSPECIFIED', 'UNSPECIFIED', 'UNSPECIFIED', ('UNSPECIFIED'), ('UNSPECIFIED'), ('UNSPECIFIED') ) ;
#46 = DIRECTION ( 'NONE',  ( 3.491481338843133355E-15, -1.224646799147353207E-16, 1.000000000000000000 ) ) ;
#47 = FACE_OUTER_BOUND ( 'NONE', #155, .T. ) ;
#48 = CARTESIAN_POINT ( 'NONE',  ( 2.150685336005774440E-14, 0.4999999999999954481, 6.159807621135337641 ) ) ;
#49 =( GEOMETRIC_REPRESENTATION_CONTEXT ( 3 ) GLOBAL_UNCERTAINTY_ASSIGNED_CONTEXT ( ( #151 ) ) GLOBAL_UNIT_ASSIGNED_CONTEXT ( ( #8, #27, #77 ) ) REPRESENTATION_CONTEXT ( 'NONE', 'WORKASPACE' ) );
#50 = ADVANCED_FACE ( 'NONE', ( #157 ), #127, .F. ) ;
#51 = COORDINATED_UNIVERSAL_TIME_OFFSET ( 1, 0, .AHEAD. ) ;
#52 = FACE_BOUND ( 'NONE', #83, .T. ) ;
#53 = EDGE_CURVE ( 'NONE', #176, #176, #145, .T. ) ;
#54 = DATE_AND_TIME ( #150, #147 ) ;
#55 = PERSON_AND_ORGANIZATION ( #45, #109 ) ;
#56 = DATE_AND_TIME ( #200, #141 ) ;
#57 = EDGE_LOOP ( 'NONE', ( #171 ) ) ;
#58 = AXIS2_PLACEMENT_3D ( 'NONE', #17, #215, #105 ) ;
#59 = AXIS2_PLACEMENT_3D ( 'NONE', #3, #143, #44 ) ;
#60 = APPROVAL_STATUS ( 'not_yet_approved' ) ;
#61 = ORIENTED_EDGE ( 'NONE', *, *, #217, .T. ) ;
#62 = CC_DESIGN_APPROVAL ( #178, ( #222 ) ) ;
#63 = DIRECTION ( 'NONE',  ( -3.491481338843133355E-15, 1.224646799147353207E-16, -1.000000000000000000 ) ) ;
#64 = DIRECTION ( 'NONE',  ( -3.491481338843133355E-15, 1.224646799147353207E-16, -1.000000000000000000 ) ) ;
#65 = AXIS2_PLACEMENT_3D ( 'NONE', #5, #67, #111 ) ;
#66 = ADVANCED_FACE ( 'NONE', ( #43 ), #173, .T. ) ;
#67 = DIRECTION ( 'NONE',  ( -3.491481338843133355E-15, 1.224646799147353207E-16, -1.000000000000000000 ) ) ;
#68 = ADVANCED_BREP_SHAPE_REPRESENTATION ( '450', ( #212, #138, #74 ), #49 ) ;
#69 = FACE_OUTER_BOUND ( 'NONE', #140, .T. ) ;
#70 = ADVANCED_FACE ( 'NONE', ( #121, #144 ), #14, .T. ) ;
#71 = DIRECTION ( 'NONE',  ( 0.0000000000000000000, 1.000000000000000000, 0.0000000000000000000 ) ) ;
#72 = PERSON_AND_ORGANIZATION ( #45, #109 ) ;
#73 = DATE_AND_TIME ( #40, #169 ) ;
#74 = AXIS2_PLACEMENT_3D ( 'NONE', #186, #23, #182 ) ;
#75 = COORDINATED_UNIVERSAL_TIME_OFFSET ( 1, 0, .AHEAD. ) ;
#76 = ORIENTED_EDGE ( 'NONE', *, *, #33, .T. ) ;
#77 =( NAMED_UNIT ( * ) SI_UNIT ( $, .STERADIAN. ) SOLID_ANGLE_UNIT ( ) );
#78 = CC_DESIGN_PERSON_AND_ORGANIZATION_ASSIGNMENT ( #37, #221, ( #28 ) ) ;
#79 = EDGE_LOOP ( 'NONE', ( #125 ) ) ;
#80 = AXIS2_PLACEMENT_3D ( 'NONE', #192, #6, #31 ) ;
#81 = APPROVAL ( #134, 'UNSPECIFIED' ) ;
#82 = ADVANCED_FACE ( 'NONE', ( #18, #85 ), #158, .T. ) ;
#83 = EDGE_LOOP ( 'NONE', ( #61 ) ) ;
#84 = AXIS2_PLACEMENT_3D ( 'NONE', #103, #64, #159 ) ;
#85 = FACE_OUTER_BOUND ( 'NONE', #57, .T. ) ;
#86 = PRODUCT_DEFINITION_SHAPE ( 'NONE', 'NONE',  #222 ) ;
#87 = DIRECTION ( 'NONE',  ( -4.275831445896958607E-31, -1.000000000000000000, -1.224646799147353207E-16 ) ) ;
#88 = CARTESIAN_POINT ( 'NONE',  ( 1.955229549752154679E-14, 2.624579619658228576E-33, 5.599999999999999645 ) ) ;
#89 = CARTESIAN_POINT ( 'NONE',  ( 1.043952920314096936E-13, 0.4999999999999952260, 29.90000000000000213 ) ) ;
#90 = ORIENTED_EDGE ( 'NONE', *, *, #53, .F. ) ;
#91 = CARTESIAN_POINT ( 'NONE',  ( 1.955229549752154679E-14, 0.3499999999999976463, 5.599999999999999645 ) ) ;
#92 = AXIS2_PLACEMENT_3D ( 'NONE', #88, #177, #32 ) ;
#93 = AXIS2_PLACEMENT_3D ( 'NONE', #2, #63, #20 ) ;
#94 = DIRECTION ( 'NONE',  ( 5.502656983963571671E-31, 1.000000000000000000, 1.548860246407874923E-16 ) ) ;
#95 = PERSON_AND_ORGANIZATION ( #45, #109 ) ;
#96 = ORIENTED_EDGE ( 'NONE', *, *, #166, .T. ) ;
#97 = LOCAL_TIME ( 15, 48, 3.000000000000000000, #38 ) ;
#98 = DATE_AND_TIME ( #152, #197 ) ;
#99 = CC_DESIGN_DATE_AND_TIME_ASSIGNMENT ( #73, #118, ( #222 ) ) ;
#100 = AXIS2_PLACEMENT_3D ( 'NONE', #198, #181, #94 ) ;
#101 = SHAPE_DEFINITION_REPRESENTATION ( #86, #68 ) ;
#102 = PLANE ( 'NONE',  #168 ) ;
#103 = CARTESIAN_POINT ( 'NONE',  ( 1.955229549752154679E-14, -6.858022075225177566E-16, 5.599999999999999645 ) ) ;
#104 = CC_DESIGN_APPROVAL ( #163, ( #28 ) ) ;
#105 = DIRECTION ( 'NONE',  ( 4.275831445896958607E-31, 1.000000000000000000, 1.224646799147353207E-16 ) ) ;
#106 = CARTESIAN_POINT ( 'NONE',  ( 2.150685336005774440E-14, -7.543588686586862949E-16, 6.159807621135337641 ) ) ;
#107 = ORIENTED_EDGE ( 'NONE', *, *, #128, .F. ) ;
#108 = VERTEX_POINT ( 'NONE', #129 ) ;
#109 = ORGANIZATION ( 'UNSPECIFIED', 'UNSPECIFIED', '' ) ;
#110 = VERTEX_POINT ( 'NONE', #131 ) ;
#111 = DIRECTION ( 'NONE',  ( 0.0000000000000000000, 1.000000000000000000, 0.0000000000000000000 ) ) ;
#112 = PERSON_AND_ORGANIZATION_ROLE ( 'design_owner' ) ;
#113 = CARTESIAN_POINT ( 'NONE',  ( 1.955229549752154679E-14, -6.858022075225177566E-16, 5.599999999999999645 ) ) ;
#114 = SECURITY_CLASSIFICATION_LEVEL ( 'unclassified' ) ;
#115 = CALENDAR_DATE ( 2021, 7, 10 ) ;
#116 = ADVANCED_FACE ( 'NONE', ( #160 ), #123, .F. ) ;
#117 = AXIS2_PLACEMENT_3D ( 'NONE', #113, #21, #71 ) ;
#118 = DATE_TIME_ROLE ( 'creation_date' ) ;
#119 = APPROVAL_DATE_TIME ( #56, #178 ) ;
#120 = EDGE_LOOP ( 'NONE', ( #188 ) ) ;
#121 = FACE_BOUND ( 'NONE', #154, .T. ) ;
#122 = CC_DESIGN_PERSON_AND_ORGANIZATION_ASSIGNMENT ( #167, #133, ( #28 ) ) ;
#123 = PLANE ( 'NONE',  #80 ) ;
#124 = APPROVAL_PERSON_ORGANIZATION ( #55, #81, #203 ) ;
#125 = ORIENTED_EDGE ( 'NONE', *, *, #194, .T. ) ;
#126 = CC_DESIGN_DATE_AND_TIME_ASSIGNMENT ( #98, #220, ( #156 ) ) ;
#127 = PLANE ( 'NONE',  #92 ) ;
#128 = EDGE_CURVE ( 'NONE', #35, #35, #214, .T. ) ;
#129 = CARTESIAN_POINT ( 'NONE',  ( 7.342627735031642565E-16, 0.3499999999999974243, 0.2103012166596470167 ) ) ;
#130 = APPROVAL_PERSON_ORGANIZATION ( #10, #163, #149 ) ;
#131 = CARTESIAN_POINT ( 'NONE',  ( 1.047444401652940007E-13, 0.3999999999999953038, 30.00000000000000000 ) ) ;
#132 = AXIS2_PLACEMENT_3D ( 'NONE', #136, #204, #139 ) ;
#133 = PERSON_AND_ORGANIZATION_ROLE ( 'creator' ) ;
#134 = APPROVAL_STATUS ( 'not_yet_approved' ) ;
#135 = DESIGN_CONTEXT ( 'detailed design', #12, 'design' ) ;
#136 = CARTESIAN_POINT ( 'NONE',  ( 1.047444401652940007E-13, -3.673940397442059178E-15, 30.00000000000000000 ) ) ;
#137 = COORDINATED_UNIVERSAL_TIME_OFFSET ( 1, 0, .AHEAD. ) ;
#138 = MANIFOLD_SOLID_BREP ( 'Corps-Déplacer/Copier1[2]', #13 ) ;
#139 = DIRECTION ( 'NONE',  ( 0.0000000000000000000, 1.000000000000000000, 0.0000000000000000000 ) ) ;
#140 = EDGE_LOOP ( 'NONE', ( #90 ) ) ;
#141 = LOCAL_TIME ( 15, 48, 3.000000000000000000, #24 ) ;
#142 = CC_DESIGN_PERSON_AND_ORGANIZATION_ASSIGNMENT ( #72, #36, ( #222 ) ) ;
#143 = DIRECTION ( 'NONE',  ( -3.491481338843133355E-15, 1.224646799147353207E-16, -1.000000000000000000 ) ) ;
#144 = FACE_OUTER_BOUND ( 'NONE', #184, .T. ) ;
#145 = CIRCLE ( 'NONE', #93, 0.4999999999999989453 ) ;
#146 = FACE_OUTER_BOUND ( 'NONE', #120, .T. ) ;
#147 = LOCAL_TIME ( 15, 48, 3.000000000000000000, #51 ) ;
#148 = VERTEX_POINT ( 'NONE', #91 ) ;
#149 = APPROVAL_ROLE ( '' ) ;
#150 = CALENDAR_DATE ( 2021, 7, 10 ) ;
#151 = UNCERTAINTY_MEASURE_WITH_UNIT (LENGTH_MEASURE( 1.000000000000000082E-05 ), #8, 'distance_accuracy_value', 'NONE');
#152 = CALENDAR_DATE ( 2021, 7, 10 ) ;
#153 = APPROVAL_STATUS ( 'not_yet_approved' ) ;
#154 = EDGE_LOOP ( 'NONE', ( #216 ) ) ;
#155 = EDGE_LOOP ( 'NONE', ( #76 ) ) ;
#156 = SECURITY_CLASSIFICATION ( '', '', #114 ) ;
#157 = FACE_OUTER_BOUND ( 'NONE', #195, .T. ) ;
#158 = CYLINDRICAL_SURFACE ( 'NONE', #59, 0.4999999999999976130 ) ;
#159 = DIRECTION ( 'NONE',  ( 0.0000000000000000000, 1.000000000000000000, 0.0000000000000000000 ) ) ;
#160 = FACE_OUTER_BOUND ( 'NONE', #193, .T. ) ;
#161 = DIRECTION ( 'NONE',  ( 0.0000000000000000000, 1.000000000000000000, 0.0000000000000000000 ) ) ;
#162 = CARTESIAN_POINT ( 'NONE',  ( 1.955229549752154679E-14, 2.624579619658228576E-33, 5.599999999999999645 ) ) ;
#163 = APPROVAL ( #153, 'UNSPECIFIED' ) ;
#164 = VERTEX_POINT ( 'NONE', #196 ) ;
#165 = APPLICATION_PROTOCOL_DEFINITION ( 'international standard', 'config_control_design', 1994, #12 ) ;
#166 = EDGE_CURVE ( 'NONE', #148, #148, #1, .T. ) ;
#167 = PERSON_AND_ORGANIZATION ( #45, #109 ) ;
#168 = AXIS2_PLACEMENT_3D ( 'NONE', #162, #46, #87 ) ;
#169 = LOCAL_TIME ( 15, 48, 3.000000000000000000, #137 ) ;
#170 = APPROVAL_DATE_TIME ( #185, #81 ) ;
#171 = ORIENTED_EDGE ( 'NONE', *, *, #53, .T. ) ;
#172 = CLOSED_SHELL ( 'NONE', ( #50, #70, #82, #208, #116 ) ) ;
#173 = CONICAL_SURFACE ( 'NONE', #199, 0.3499999999999974243, 1.029744258676649427 ) ;
#174 = EDGE_LOOP ( 'NONE', ( #29 ) ) ;
#175 = DIRECTION ( 'NONE',  ( -5.502656983963571671E-31, -1.000000000000000000, -1.548860246407874923E-16 ) ) ;
#176 = VERTEX_POINT ( 'NONE', #89 ) ;
#177 = DIRECTION ( 'NONE',  ( 3.491481338843133355E-15, -1.224646799147353207E-16, 1.000000000000000000 ) ) ;
#178 = APPROVAL ( #60, 'UNSPECIFIED' ) ;
#179 = CC_DESIGN_SECURITY_CLASSIFICATION ( #156, ( #28 ) ) ;
#180 = APPLICATION_CONTEXT ( 'configuration controlled 3d designs of mechanical parts and assemblies' ) ;
#181 = DIRECTION ( 'NONE',  ( -3.491481338843133355E-15, 1.224646799147353207E-16, -1.000000000000000000 ) ) ;
#182 = DIRECTION ( 'NONE',  ( 1.000000000000000000, 0.0000000000000000000, 0.0000000000000000000 ) ) ;
#183 = PERSON_AND_ORGANIZATION ( #45, #109 ) ;
#184 = EDGE_LOOP ( 'NONE', ( #34 ) ) ;
#185 = DATE_AND_TIME ( #115, #97 ) ;
#186 = CARTESIAN_POINT ( 'NONE',  ( 0.0000000000000000000, 0.0000000000000000000, 0.0000000000000000000 ) ) ;
#187 = PRODUCT_RELATED_PRODUCT_CATEGORY ( 'detail', '', ( #190 ) ) ;
#188 = ORIENTED_EDGE ( 'NONE', *, *, #194, .F. ) ;
#189 = DIRECTION ( 'NONE',  ( 3.491481338843133355E-15, -1.224646799147353207E-16, 1.000000000000000000 ) ) ;
#190 = PRODUCT ( '450', '450', '', ( #206 ) ) ;
#191 = AXIS2_PLACEMENT_3D ( 'NONE', #207, #26, #161 ) ;
#192 = CARTESIAN_POINT ( 'NONE',  ( 1.047444401652940007E-13, 2.999519565323652267E-33, 30.00000000000000000 ) ) ;
#193 = EDGE_LOOP ( 'NONE', ( #42 ) ) ;
#194 = EDGE_CURVE ( 'NONE', #108, #108, #219, .T. ) ;
#195 = EDGE_LOOP ( 'NONE', ( #96 ) ) ;
#196 = CARTESIAN_POINT ( 'NONE',  ( 1.955229549752154679E-14, 0.3499999999999976463, 5.599999999999999645 ) ) ;
#197 = LOCAL_TIME ( 15, 48, 3.000000000000000000, #75 ) ;
#198 = CARTESIAN_POINT ( 'NONE',  ( 7.342627735031640593E-16, -2.575447118390306898E-17, 0.2103012166596469612 ) ) ;
#199 = AXIS2_PLACEMENT_3D ( 'NONE', #213, #211, #175 ) ;
#200 = CALENDAR_DATE ( 2021, 7, 10 ) ;
#201 = APPROVAL_DATE_TIME ( #54, #163 ) ;
#202 = EDGE_LOOP ( 'NONE', ( #107 ) ) ;
#203 = APPROVAL_ROLE ( '' ) ;
#204 = DIRECTION ( 'NONE',  ( -3.491481338843133355E-15, 1.224646799147353207E-16, -1.000000000000000000 ) ) ;
#205 = APPROVAL_PERSON_ORGANIZATION ( #25, #178, #41 ) ;
#206 = MECHANICAL_CONTEXT ( 'NONE', #180, 'mechanical' ) ;
#207 = CARTESIAN_POINT ( 'NONE',  ( 1.047444401652940007E-13, -3.673940397442059178E-15, 30.00000000000000000 ) ) ;
#208 = ADVANCED_FACE ( 'NONE', ( #69, #52 ), #209, .T. ) ;
#209 = CONICAL_SURFACE ( 'NONE', #132, 0.3999999999999989675, 0.7853981633974683740 ) ;
#210 = FACE_OUTER_BOUND ( 'NONE', #174, .T. ) ;
#211 = DIRECTION ( 'NONE',  ( 3.491481338843133355E-15, -1.224646799147353207E-16, 1.000000000000000000 ) ) ;
#212 = MANIFOLD_SOLID_BREP ( 'Corps-Déplacer/Copier1[1]', #172 ) ;
#213 = CARTESIAN_POINT ( 'NONE',  ( 7.342627735031640593E-16, -2.575447118390306898E-17, 0.2103012166596469612 ) ) ;
#214 = CIRCLE ( 'NONE', #65, 0.4999999999999962252 ) ;
#215 = DIRECTION ( 'NONE',  ( -3.491481338843133355E-15, 1.224646799147353207E-16, -1.000000000000000000 ) ) ;
#216 = ORIENTED_EDGE ( 'NONE', *, *, #166, .F. ) ;
#217 = EDGE_CURVE ( 'NONE', #110, #110, #39, .T. ) ;
#218 = CIRCLE ( 'NONE', #84, 0.3499999999999983680 ) ;
#219 = CIRCLE ( 'NONE', #100, 0.3499999999999974243 ) ;
#220 = DATE_TIME_ROLE ( 'classification_date' ) ;
#221 = PERSON_AND_ORGANIZATION_ROLE ( 'design_supplier' ) ;
#222 = PRODUCT_DEFINITION ( 'UNKNOWN', '', #28, #135 ) ;
#223 = AXIS2_PLACEMENT_3D ( 'NONE', #106, #189, #15 ) ;
ENDSEC;
END-ISO-10303-21;
