ISO-10303-21;
HEADER;
FILE_DESCRIPTION (( 'STEP AP203' ),
    '1' );
FILE_NAME ('44939.step',
    '2021-11-01T09:45:35',
    ( '' ),
    ( '' ),
    'SwSTEP 2.0',
    'SolidWorks 2019',
    '' );
FILE_SCHEMA (( 'CONFIG_CONTROL_DESIGN' ));
ENDSEC;

DATA;
#1 = CALENDAR_DATE ( 2021, 1, 11 ) ;
#2 = EDGE_LOOP ( 'NONE', ( #28 ) ) ;
#3 = APPROVAL_ROLE ( '' ) ;
#4 = CARTESIAN_POINT ( 'NONE',  ( 1.316288464743861212E-13, -4.616918432785521081E-15, 37.69999999999999574 ) ) ;
#5 = EDGE_CURVE ( 'NONE', #146, #146, #138, .T. ) ;
#6 = PERSON_AND_ORGANIZATION_ROLE ( 'design_supplier' ) ;
#7 = ORIENTED_EDGE ( 'NONE', *, *, #77, .F. ) ;
#8 = AXIS2_PLACEMENT_3D ( 'NONE', #14, #190, #204 ) ;
#9 = ORIENTED_EDGE ( 'NONE', *, *, #77, .T. ) ;
#10 = AXIS2_PLACEMENT_3D ( 'NONE', #55, #38, #124 ) ;
#11 = CARTESIAN_POINT ( 'NONE',  ( -3.642977224432302135E-31, -9.741282687068013959E-33, -1.043390146154802315E-16 ) ) ;
#12 = FACE_OUTER_BOUND ( 'NONE', #183, .T. ) ;
#13 = CC_DESIGN_DATE_AND_TIME_ASSIGNMENT ( #164, #132, ( #78 ) ) ;
#14 = CARTESIAN_POINT ( 'NONE',  ( 2.289964183339113510E-14, -3.877382746112930098E-16, 6.558718094417395506 ) ) ;
#15 = TOROIDAL_SURFACE ( 'NONE', #141, 8.849999999999999645, 8.000000000000000000 ) ;
#16 = CARTESIAN_POINT ( 'NONE',  ( 1.187103655206665183E-14, 1.124819836996384858E-32, 3.399999999999999911 ) ) ;
#17 = UNCERTAINTY_MEASURE_WITH_UNIT (LENGTH_MEASURE( 1.000000000000000082E-05 ), #142, 'distance_accuracy_value', 'NONE');
#18 = VERTEX_POINT ( 'NONE', #73 ) ;
#19 = DATE_AND_TIME ( #92, #53 ) ;
#20 = APPROVAL_PERSON_ORGANIZATION ( #21, #98, #195 ) ;
#21 = PERSON_AND_ORGANIZATION ( #83, #63 ) ;
#22 = ADVANCED_FACE ( 'NONE', ( #212 ), #62, .F. ) ;
#23 = APPLICATION_CONTEXT ( 'configuration controlled 3d designs of mechanical parts and assemblies' ) ;
#24 = APPLICATION_PROTOCOL_DEFINITION ( 'international standard', 'config_control_design', 1994, #171 ) ;
#25 = APPROVAL_DATE_TIME ( #127, #98 ) ;
#26 = CIRCLE ( 'NONE', #178, 0.8499999999999992006 ) ;
#27 = EDGE_LOOP ( 'NONE', ( #9 ) ) ;
#28 = ORIENTED_EDGE ( 'NONE', *, *, #74, .T. ) ;
#29 = AXIS2_PLACEMENT_3D ( 'NONE', #120, #219, #72 ) ;
#30 = DIRECTION ( 'NONE',  ( 0.0000000000000000000, 1.000000000000000000, 0.0000000000000000000 ) ) ;
#31 = FACE_OUTER_BOUND ( 'NONE', #117, .T. ) ;
#32 = PLANE ( 'NONE',  #173 ) ;
#33 = DIRECTION ( 'NONE',  ( 3.491481338843133355E-15, -1.227517819005651059E-16, 1.000000000000000000 ) ) ;
#34 =( GEOMETRIC_REPRESENTATION_CONTEXT ( 3 ) GLOBAL_UNCERTAINTY_ASSIGNED_CONTEXT ( ( #17 ) ) GLOBAL_UNIT_ASSIGNED_CONTEXT ( ( #142, #110, #191 ) ) REPRESENTATION_CONTEXT ( 'NONE', 'WORKASPACE' ) );
#35 = CC_DESIGN_PERSON_AND_ORGANIZATION_ASSIGNMENT ( #194, #107, ( #160 ) ) ;
#36 = FACE_OUTER_BOUND ( 'NONE', #2, .T. ) ;
#37 = PERSON_AND_ORGANIZATION ( #83, #63 ) ;
#38 = DIRECTION ( 'NONE',  ( 0.0000000000000000000, 0.0000000000000000000, 1.000000000000000000 ) ) ;
#39 = AXIS2_PLACEMENT_3D ( 'NONE', #203, #187, #101 ) ;
#40 = CALENDAR_DATE ( 2021, 1, 11 ) ;
#41 = CARTESIAN_POINT ( 'NONE',  ( 2.289964183339113510E-14, 1.499999999999991340, 6.558718094417395506 ) ) ;
#42 = PERSON_AND_ORGANIZATION ( #83, #63 ) ;
#43 = ORIENTED_EDGE ( 'NONE', *, *, #91, .F. ) ;
#44 = ORIENTED_EDGE ( 'NONE', *, *, #91, .T. ) ;
#45 = AXIS2_PLACEMENT_3D ( 'NONE', #202, #100, #140 ) ;
#46 = SECURITY_CLASSIFICATION_LEVEL ( 'unclassified' ) ;
#47 = FACE_OUTER_BOUND ( 'NONE', #182, .T. ) ;
#48 = DIRECTION ( 'NONE',  ( 3.491481338843133355E-15, -1.227517819005651059E-16, 1.000000000000000000 ) ) ;
#49 = LOCAL_TIME ( 10, 45, 35.00000000000000000, #213 ) ;
#50 = DIRECTION ( 'NONE',  ( 4.275831445896958607E-31, 1.000000000000000000, 1.224646799147353207E-16 ) ) ;
#51 = PLANE ( 'NONE',  #133 ) ;
#52 = DIRECTION ( 'NONE',  ( 3.491481338843133355E-15, -1.224646799147353207E-16, 1.000000000000000000 ) ) ;
#53 = LOCAL_TIME ( 10, 45, 35.00000000000000000, #89 ) ;
#54 = APPROVAL_PERSON_ORGANIZATION ( #115, #103, #3 ) ;
#55 = CARTESIAN_POINT ( 'NONE',  ( 0.0000000000000000000, 0.0000000000000000000, 0.0000000000000000000 ) ) ;
#56 = VERTEX_POINT ( 'NONE', #90 ) ;
#57 = CALENDAR_DATE ( 2021, 1, 11 ) ;
#58 = CIRCLE ( 'NONE', #166, 0.8500000000000005329 ) ;
#59 = EDGE_LOOP ( 'NONE', ( #80 ) ) ;
#60 = ADVANCED_FACE ( 'NONE', ( #31, #36 ), #15, .F. ) ;
#61 = EDGE_LOOP ( 'NONE', ( #200 ) ) ;
#62 = PLANE ( 'NONE',  #29 ) ;
#63 = ORGANIZATION ( 'UNSPECIFIED', 'UNSPECIFIED', '' ) ;
#64 = APPROVAL_STATUS ( 'not_yet_approved' ) ;
#65 = EDGE_LOOP ( 'NONE', ( #147 ) ) ;
#66 = CC_DESIGN_PERSON_AND_ORGANIZATION_ASSIGNMENT ( #42, #150, ( #78 ) ) ;
#67 = FACE_OUTER_BOUND ( 'NONE', #61, .T. ) ;
#68 = ADVANCED_FACE ( 'NONE', ( #102 ), #51, .F. ) ;
#69 = CONICAL_SURFACE ( 'NONE', #145, 1.199999999999993738, 0.7853981633974453924 ) ;
#70 = FACE_OUTER_BOUND ( 'NONE', #59, .T. ) ;
#71 = DIRECTION ( 'NONE',  ( 3.491481338843133355E-15, -1.227517819005651059E-16, 1.000000000000000000 ) ) ;
#72 = DIRECTION ( 'NONE',  ( -4.275831445896958607E-31, -1.000000000000000000, -1.224646799147353207E-16 ) ) ;
#73 = CARTESIAN_POINT ( 'NONE',  ( -7.285954448864604269E-31, -0.8499999999999992006, -2.086780292309604630E-16 ) ) ;
#74 = EDGE_CURVE ( 'NONE', #123, #123, #151, .T. ) ;
#75 = PRODUCT ( '44939', '44939', '', ( #112 ) ) ;
#76 = PERSON_AND_ORGANIZATION_ROLE ( 'design_owner' ) ;
#77 = EDGE_CURVE ( 'NONE', #18, #18, #26, .T. ) ;
#78 = SECURITY_CLASSIFICATION ( '', '', #46 ) ;
#79 = DIRECTION ( 'NONE',  ( -3.491481338843133355E-15, 1.224646799147353207E-16, -1.000000000000000000 ) ) ;
#80 = ORIENTED_EDGE ( 'NONE', *, *, #74, .F. ) ;
#81 = CYLINDRICAL_SURFACE ( 'NONE', #157, 0.8499999999999998668 ) ;
#82 = DIRECTION ( 'NONE',  ( 3.491481338843133355E-15, -1.227517819005651059E-16, 1.000000000000000000 ) ) ;
#83 = PERSON ( 'UNSPECIFIED', 'UNSPECIFIED', 'UNSPECIFIED', ('UNSPECIFIED'), ('UNSPECIFIED'), ('UNSPECIFIED') ) ;
#84 = DIRECTION ( 'NONE',  ( -4.275831445896958607E-31, -1.000000000000000000, -1.224646799147353207E-16 ) ) ;
#85 = CIRCLE ( 'NONE', #45, 1.199999999999993738 ) ;
#86 = FACE_OUTER_BOUND ( 'NONE', #165, .T. ) ;
#87 = ADVANCED_FACE ( 'NONE', ( #175, #86 ), #81, .T. ) ;
#88 = CARTESIAN_POINT ( 'NONE',  ( 1.187103655206665025E-14, -4.173560584619212219E-16, 3.399999999999999023 ) ) ;
#89 = COORDINATED_UNIVERSAL_TIME_OFFSET ( 1, 0, .AHEAD. ) ;
#90 = CARTESIAN_POINT ( 'NONE',  ( 1.326762908760390423E-13, 1.199999999999989297, 38.00000000000000000 ) ) ;
#91 = EDGE_CURVE ( 'NONE', #129, #129, #206, .T. ) ;
#92 = CALENDAR_DATE ( 2021, 1, 11 ) ;
#93 = PERSON_AND_ORGANIZATION ( #83, #63 ) ;
#94 = LOCAL_TIME ( 10, 45, 35.00000000000000000, #208 ) ;
#95 = CC_DESIGN_APPROVAL ( #103, ( #78 ) ) ;
#96 = COORDINATED_UNIVERSAL_TIME_OFFSET ( 1, 0, .AHEAD. ) ;
#97 = PERSON_AND_ORGANIZATION ( #83, #63 ) ;
#98 = APPROVAL ( #159, 'UNSPECIFIED' ) ;
#99 = EDGE_LOOP ( 'NONE', ( #7 ) ) ;
#100 = DIRECTION ( 'NONE',  ( -3.491481338843133355E-15, 1.224646799147353207E-16, -1.000000000000000000 ) ) ;
#101 = DIRECTION ( 'NONE',  ( 4.275831445896958607E-31, 1.000000000000000000, 1.224646799147353207E-16 ) ) ;
#102 = FACE_OUTER_BOUND ( 'NONE', #65, .T. ) ;
#103 = APPROVAL ( #64, 'UNSPECIFIED' ) ;
#104 = MANIFOLD_SOLID_BREP ( 'Corps-Déplacer/Copier1[1]', #118 ) ;
#105 = PLANE ( 'NONE',  #186 ) ;
#106 = ADVANCED_BREP_SHAPE_REPRESENTATION ( '44939', ( #104, #181, #10 ), #34 ) ;
#107 = PERSON_AND_ORGANIZATION_ROLE ( 'creator' ) ;
#108 = CALENDAR_DATE ( 2021, 1, 11 ) ;
#109 = PRODUCT_DEFINITION_FORMATION_WITH_SPECIFIED_SOURCE ( 'ANY', '', #75, .NOT_KNOWN. ) ;
#110 =( NAMED_UNIT ( * ) PLANE_ANGLE_UNIT ( ) SI_UNIT ( $, .RADIAN. ) );
#111 = ADVANCED_FACE ( 'NONE', ( #47, #70 ), #201, .T. ) ;
#112 = MECHANICAL_CONTEXT ( 'NONE', #171, 'mechanical' ) ;
#113 = APPLICATION_PROTOCOL_DEFINITION ( 'international standard', 'config_control_design', 1994, #23 ) ;
#114 = LOCAL_TIME ( 10, 45, 35.00000000000000000, #196 ) ;
#115 = PERSON_AND_ORGANIZATION ( #83, #63 ) ;
#116 = EDGE_LOOP ( 'NONE', ( #169 ) ) ;
#117 = EDGE_LOOP ( 'NONE', ( #44 ) ) ;
#118 = CLOSED_SHELL ( 'NONE', ( #111, #154, #68, #60, #211 ) ) ;
#119 = CARTESIAN_POINT ( 'NONE',  ( 1.326762908760390423E-13, -4.653657836759941941E-15, 38.00000000000000000 ) ) ;
#120 = CARTESIAN_POINT ( 'NONE',  ( -1.282754905350004587E-30, 4.499298539707956128E-32, -3.673956068672651857E-16 ) ) ;
#121 = FACE_BOUND ( 'NONE', #116, .T. ) ;
#122 = CARTESIAN_POINT ( 'NONE',  ( -6.413731847436034514E-31, 0.0000000000000000000, -1.836965810494968570E-16 ) ) ;
#123 = VERTEX_POINT ( 'NONE', #41 ) ;
#124 = DIRECTION ( 'NONE',  ( 1.000000000000000000, 0.0000000000000000000, 0.0000000000000000000 ) ) ;
#125 = DATE_AND_TIME ( #108, #94 ) ;
#126 = AXIS2_PLACEMENT_3D ( 'NONE', #4, #79, #149 ) ;
#127 = DATE_AND_TIME ( #40, #114 ) ;
#128 = PRODUCT_RELATED_PRODUCT_CATEGORY ( 'detail', '', ( #75 ) ) ;
#129 = VERTEX_POINT ( 'NONE', #223 ) ;
#130 = AXIS2_PLACEMENT_3D ( 'NONE', #88, #82, #217 ) ;
#131 = ORIENTED_EDGE ( 'NONE', *, *, #136, .T. ) ;
#132 = DATE_TIME_ROLE ( 'classification_date' ) ;
#133 = AXIS2_PLACEMENT_3D ( 'NONE', #135, #158, #50 ) ;
#134 = ORIENTED_EDGE ( 'NONE', *, *, #136, .F. ) ;
#135 = CARTESIAN_POINT ( 'NONE',  ( 1.326762908760390423E-13, 8.998558695971030697E-33, 38.00000000000000000 ) ) ;
#136 = EDGE_CURVE ( 'NONE', #177, #177, #58, .T. ) ;
#137 = DIRECTION ( 'NONE',  ( -3.491481338843133355E-15, 1.224646799147353207E-16, -1.000000000000000000 ) ) ;
#138 = CIRCLE ( 'NONE', #126, 1.499999999999993783 ) ;
#139 = ADVANCED_FACE ( 'NONE', ( #12 ), #105, .T. ) ;
#140 = DIRECTION ( 'NONE',  ( 0.0000000000000000000, 1.000000000000000000, 0.0000000000000000000 ) ) ;
#141 = AXIS2_PLACEMENT_3D ( 'NONE', #155, #48, #156 ) ;
#142 =( LENGTH_UNIT ( ) NAMED_UNIT ( * ) SI_UNIT ( .MILLI., .METRE. ) );
#143 = PERSON_AND_ORGANIZATION ( #83, #63 ) ;
#144 = APPROVAL_STATUS ( 'not_yet_approved' ) ;
#145 = AXIS2_PLACEMENT_3D ( 'NONE', #119, #137, #30 ) ;
#146 = VERTEX_POINT ( 'NONE', #207 ) ;
#147 = ORIENTED_EDGE ( 'NONE', *, *, #176, .F. ) ;
#148 = APPROVAL_DATE_TIME ( #198, #103 ) ;
#149 = DIRECTION ( 'NONE',  ( 0.0000000000000000000, 1.000000000000000000, 0.0000000000000000000 ) ) ;
#150 = PERSON_AND_ORGANIZATION_ROLE ( 'classification_officer' ) ;
#151 = CIRCLE ( 'NONE', #8, 1.499999999999991784 ) ;
#152 = LOCAL_TIME ( 10, 45, 35.00000000000000000, #96 ) ;
#153 = CARTESIAN_POINT ( 'NONE',  ( 1.187103655206665025E-14, -4.173560584619212219E-16, 3.399999999999999023 ) ) ;
#154 = ADVANCED_FACE ( 'NONE', ( #67, #121 ), #69, .T. ) ;
#155 = CARTESIAN_POINT ( 'NONE',  ( 1.187103655206664867E-14, 0.0000000000000000000, 3.399999999999998579 ) ) ;
#156 = DIRECTION ( 'NONE',  ( -4.364654651340399695E-31, -1.000000000000000000, -1.227517819005651059E-16 ) ) ;
#157 = AXIS2_PLACEMENT_3D ( 'NONE', #122, #218, #185 ) ;
#158 = DIRECTION ( 'NONE',  ( -3.491481338843133355E-15, 1.224646799147353207E-16, -1.000000000000000000 ) ) ;
#159 = APPROVAL_STATUS ( 'not_yet_approved' ) ;
#160 = PRODUCT_DEFINITION ( 'UNKNOWN', '', #109, #192 ) ;
#161 = CARTESIAN_POINT ( 'NONE',  ( 1.187103655206665025E-14, -0.8500000000000009770, 3.399999999999999023 ) ) ;
#162 = PERSON_AND_ORGANIZATION_ROLE ( 'creator' ) ;
#163 = APPROVAL ( #144, 'UNSPECIFIED' ) ;
#164 = DATE_AND_TIME ( #57, #152 ) ;
#165 = EDGE_LOOP ( 'NONE', ( #134 ) ) ;
#166 = AXIS2_PLACEMENT_3D ( 'NONE', #153, #33, #172 ) ;
#167 = CC_DESIGN_APPROVAL ( #98, ( #109 ) ) ;
#168 = CC_DESIGN_PERSON_AND_ORGANIZATION_ASSIGNMENT ( #93, #162, ( #109 ) ) ;
#169 = ORIENTED_EDGE ( 'NONE', *, *, #176, .T. ) ;
#170 = CLOSED_SHELL ( 'NONE', ( #139, #87, #22 ) ) ;
#171 = APPLICATION_CONTEXT ( 'configuration controlled 3d designs of mechanical parts and assemblies' ) ;
#172 = DIRECTION ( 'NONE',  ( 0.0000000000000000000, -1.000000000000000000, 0.0000000000000000000 ) ) ;
#173 = AXIS2_PLACEMENT_3D ( 'NONE', #205, #52, #197 ) ;
#174 = CC_DESIGN_DATE_AND_TIME_ASSIGNMENT ( #19, #179, ( #160 ) ) ;
#175 = FACE_OUTER_BOUND ( 'NONE', #27, .T. ) ;
#176 = EDGE_CURVE ( 'NONE', #56, #56, #85, .T. ) ;
#177 = VERTEX_POINT ( 'NONE', #161 ) ;
#178 = AXIS2_PLACEMENT_3D ( 'NONE', #11, #71, #216 ) ;
#179 = DATE_TIME_ROLE ( 'creation_date' ) ;
#180 = PRODUCT_DEFINITION_SHAPE ( 'NONE', 'NONE',  #160 ) ;
#181 = MANIFOLD_SOLID_BREP ( 'Corps-Déplacer/Copier1[2]', #170 ) ;
#182 = EDGE_LOOP ( 'NONE', ( #184 ) ) ;
#183 = EDGE_LOOP ( 'NONE', ( #131 ) ) ;
#184 = ORIENTED_EDGE ( 'NONE', *, *, #5, .T. ) ;
#185 = DIRECTION ( 'NONE',  ( -4.285855558155652404E-31, -1.000000000000000000, -1.227517819005650812E-16 ) ) ;
#186 = AXIS2_PLACEMENT_3D ( 'NONE', #16, #220, #84 ) ;
#187 = DIRECTION ( 'NONE',  ( -3.491481338843133355E-15, 1.224646799147353207E-16, -1.000000000000000000 ) ) ;
#188 = FACE_OUTER_BOUND ( 'NONE', #214, .T. ) ;
#189 = APPROVAL_PERSON_ORGANIZATION ( #143, #163, #209 ) ;
#190 = DIRECTION ( 'NONE',  ( -3.491481338843133355E-15, 1.227517819005651059E-16, -1.000000000000000000 ) ) ;
#191 =( NAMED_UNIT ( * ) SI_UNIT ( $, .STERADIAN. ) SOLID_ANGLE_UNIT ( ) );
#192 = DESIGN_CONTEXT ( 'detailed design', #23, 'design' ) ;
#193 = CC_DESIGN_PERSON_AND_ORGANIZATION_ASSIGNMENT ( #97, #6, ( #109 ) ) ;
#194 = PERSON_AND_ORGANIZATION ( #83, #63 ) ;
#195 = APPROVAL_ROLE ( '' ) ;
#196 = COORDINATED_UNIVERSAL_TIME_OFFSET ( 1, 0, .AHEAD. ) ;
#197 = DIRECTION ( 'NONE',  ( -4.275831445896958607E-31, -1.000000000000000000, -1.224646799147353207E-16 ) ) ;
#198 = DATE_AND_TIME ( #1, #49 ) ;
#199 = SHAPE_DEFINITION_REPRESENTATION ( #180, #106 ) ;
#200 = ORIENTED_EDGE ( 'NONE', *, *, #5, .F. ) ;
#201 = CYLINDRICAL_SURFACE ( 'NONE', #39, 1.499999999999991784 ) ;
#202 = CARTESIAN_POINT ( 'NONE',  ( 1.326762908760390423E-13, -4.653657836759941941E-15, 38.00000000000000000 ) ) ;
#203 = CARTESIAN_POINT ( 'NONE',  ( 0.0000000000000000000, 0.0000000000000000000, 0.0000000000000000000 ) ) ;
#204 = DIRECTION ( 'NONE',  ( 0.0000000000000000000, 1.000000000000000000, 0.0000000000000000000 ) ) ;
#205 = CARTESIAN_POINT ( 'NONE',  ( 1.187103655206665183E-14, 1.124819836996384858E-32, 3.399999999999999911 ) ) ;
#206 = CIRCLE ( 'NONE', #130, 0.8500000000000005329 ) ;
#207 = CARTESIAN_POINT ( 'NONE',  ( 1.316288464743861212E-13, 1.499999999999989120, 37.69999999999999574 ) ) ;
#208 = COORDINATED_UNIVERSAL_TIME_OFFSET ( 1, 0, .AHEAD. ) ;
#209 = APPROVAL_ROLE ( '' ) ;
#210 = APPROVAL_DATE_TIME ( #125, #163 ) ;
#211 = ADVANCED_FACE ( 'NONE', ( #188 ), #32, .F. ) ;
#212 = FACE_OUTER_BOUND ( 'NONE', #99, .T. ) ;
#213 = COORDINATED_UNIVERSAL_TIME_OFFSET ( 1, 0, .AHEAD. ) ;
#214 = EDGE_LOOP ( 'NONE', ( #43 ) ) ;
#215 = CC_DESIGN_APPROVAL ( #163, ( #160 ) ) ;
#216 = DIRECTION ( 'NONE',  ( -4.285855558155653280E-31, -1.000000000000000000, -1.227517819005651059E-16 ) ) ;
#217 = DIRECTION ( 'NONE',  ( 0.0000000000000000000, -1.000000000000000000, 0.0000000000000000000 ) ) ;
#218 = DIRECTION ( 'NONE',  ( 3.491481338843133355E-15, -1.227517819005651059E-16, 1.000000000000000000 ) ) ;
#219 = DIRECTION ( 'NONE',  ( 3.491481338843133355E-15, -1.224646799147353207E-16, 1.000000000000000000 ) ) ;
#220 = DIRECTION ( 'NONE',  ( 3.491481338843133355E-15, -1.224646799147353207E-16, 1.000000000000000000 ) ) ;
#221 = CC_DESIGN_PERSON_AND_ORGANIZATION_ASSIGNMENT ( #37, #76, ( #75 ) ) ;
#222 = CC_DESIGN_SECURITY_CLASSIFICATION ( #78, ( #109 ) ) ;
#223 = CARTESIAN_POINT ( 'NONE',  ( 1.187103655206665025E-14, -0.8500000000000009770, 3.399999999999999023 ) ) ;
ENDSEC;
END-ISO-10303-21;
