ISO-10303-21;
HEADER;
FILE_DESCRIPTION (( 'STEP AP203' ),
    '1' );
FILE_NAME ('44877.step',
    '2021-11-01T09:16:23',
    ( '' ),
    ( '' ),
    'SwSTEP 2.0',
    'SolidWorks 2019',
    '' );
FILE_SCHEMA (( 'CONFIG_CONTROL_DESIGN' ));
ENDSEC;

DATA;
#1 = ORIENTED_EDGE ( 'NONE', *, *, #108, .T. ) ;
#2 = AXIS2_PLACEMENT_3D ( 'NONE', #103, #181, #24 ) ;
#3 = FACE_OUTER_BOUND ( 'NONE', #79, .T. ) ;
#4 = PRODUCT_DEFINITION ( 'UNKNOWN', '', #41, #25 ) ;
#5 = DIRECTION ( 'NONE',  ( 4.275831445896958607E-31, 1.000000000000000000, 1.224646799147353207E-16 ) ) ;
#6 = FACE_OUTER_BOUND ( 'NONE', #140, .T. ) ;
#7 = DIRECTION ( 'NONE',  ( 3.491481338843133355E-15, -1.227517819005651059E-16, 1.000000000000000000 ) ) ;
#8 = VERTEX_POINT ( 'NONE', #127 ) ;
#9 = UNCERTAINTY_MEASURE_WITH_UNIT (LENGTH_MEASURE( 1.000000000000000082E-05 ), #40, 'distance_accuracy_value', 'NONE');
#10 = CC_DESIGN_PERSON_AND_ORGANIZATION_ASSIGNMENT ( #168, #119, ( #41 ) ) ;
#11 = AXIS2_PLACEMENT_3D ( 'NONE', #197, #122, #5 ) ;
#12 = COORDINATED_UNIVERSAL_TIME_OFFSET ( 1, 0, .AHEAD. ) ;
#13 = PERSON_AND_ORGANIZATION ( #15, #98 ) ;
#14 = ORIENTED_EDGE ( 'NONE', *, *, #108, .F. ) ;
#15 = PERSON ( 'UNSPECIFIED', 'UNSPECIFIED', 'UNSPECIFIED', ('UNSPECIFIED'), ('UNSPECIFIED'), ('UNSPECIFIED') ) ;
#16 = ORIENTED_EDGE ( 'NONE', *, *, #116, .T. ) ;
#17 = DATE_AND_TIME ( #82, #39 ) ;
#18 = AXIS2_PLACEMENT_3D ( 'NONE', #135, #118, #192 ) ;
#19 = EDGE_LOOP ( 'NONE', ( #186 ) ) ;
#20 = DATE_AND_TIME ( #99, #207 ) ;
#21 = PLANE ( 'NONE',  #109 ) ;
#22 = DIRECTION ( 'NONE',  ( 3.491481338843133355E-15, -1.224646799147353207E-16, 1.000000000000000000 ) ) ;
#23 = DIRECTION ( 'NONE',  ( 3.491481338843133355E-15, -1.227517819005651059E-16, 1.000000000000000000 ) ) ;
#24 = DIRECTION ( 'NONE',  ( -4.275831445896958607E-31, -1.000000000000000000, -1.224646799147353207E-16 ) ) ;
#25 = DESIGN_CONTEXT ( 'detailed design', #91, 'design' ) ;
#26 = DIRECTION ( 'NONE',  ( 0.0000000000000000000, -1.000000000000000000, 0.0000000000000000000 ) ) ;
#27 = DATE_TIME_ROLE ( 'classification_date' ) ;
#28 = LOCAL_TIME ( 10, 16, 23.00000000000000000, #220 ) ;
#29 = EDGE_LOOP ( 'NONE', ( #205 ) ) ;
#30 = APPROVAL_ROLE ( '' ) ;
#31 = CC_DESIGN_PERSON_AND_ORGANIZATION_ASSIGNMENT ( #193, #77, ( #166 ) ) ;
#32 = APPROVAL_STATUS ( 'not_yet_approved' ) ;
#33 = APPROVAL ( #32, 'UNSPECIFIED' ) ;
#34 = DIRECTION ( 'NONE',  ( 4.275831445896958607E-31, 1.000000000000000000, 1.224646799147353207E-16 ) ) ;
#35 = CLOSED_SHELL ( 'NONE', ( #184, #100, #126 ) ) ;
#36 = CYLINDRICAL_SURFACE ( 'NONE', #185, 1.499999999999991784 ) ;
#37 = PLANE ( 'NONE',  #105 ) ;
#38 = CYLINDRICAL_SURFACE ( 'NONE', #164, 1.149999999999999911 ) ;
#39 = LOCAL_TIME ( 10, 16, 23.00000000000000000, #50 ) ;
#40 =( LENGTH_UNIT ( ) NAMED_UNIT ( * ) SI_UNIT ( .MILLI., .METRE. ) );
#41 = PRODUCT_DEFINITION_FORMATION_WITH_SPECIFIED_SOURCE ( 'ANY', '', #124, .NOT_KNOWN. ) ;
#42 = EDGE_LOOP ( 'NONE', ( #202 ) ) ;
#43 = PERSON_AND_ORGANIZATION ( #15, #98 ) ;
#44 = APPROVAL_ROLE ( '' ) ;
#45 = AXIS2_PLACEMENT_3D ( 'NONE', #125, #72, #65 ) ;
#46 = EDGE_CURVE ( 'NONE', #143, #143, #191, .T. ) ;
#47 = APPROVAL_DATE_TIME ( #20, #33 ) ;
#48 = ORIENTED_EDGE ( 'NONE', *, *, #69, .F. ) ;
#49 = CARTESIAN_POINT ( 'NONE',  ( 0.0000000000000000000, 0.0000000000000000000, 0.0000000000000000000 ) ) ;
#50 = COORDINATED_UNIVERSAL_TIME_OFFSET ( 1, 0, .AHEAD. ) ;
#51 = CIRCLE ( 'NONE', #179, 1.150000000000000799 ) ;
#52 = CARTESIAN_POINT ( 'NONE',  ( -1.282754905350004587E-30, 4.499298539707956128E-32, -3.673956068672651857E-16 ) ) ;
#53 = PRODUCT_DEFINITION_SHAPE ( 'NONE', 'NONE',  #4 ) ;
#54 = EDGE_CURVE ( 'NONE', #55, #55, #85, .T. ) ;
#55 = VERTEX_POINT ( 'NONE', #68 ) ;
#56 = CARTESIAN_POINT ( 'NONE',  ( 1.316288464743861212E-13, -4.616918432785521081E-15, 37.69999999999999574 ) ) ;
#57 = APPROVAL_PERSON_ORGANIZATION ( #206, #33, #137 ) ;
#58 = CARTESIAN_POINT ( 'NONE',  ( -6.413731847436034514E-31, 0.0000000000000000000, -1.836965810494968570E-16 ) ) ;
#59 = FACE_OUTER_BOUND ( 'NONE', #131, .T. ) ;
#60 = APPROVAL_DATE_TIME ( #155, #196 ) ;
#61 = DIRECTION ( 'NONE',  ( 3.491481338843133355E-15, -1.227517819005651059E-16, 1.000000000000000000 ) ) ;
#62 =( NAMED_UNIT ( * ) PLANE_ANGLE_UNIT ( ) SI_UNIT ( $, .RADIAN. ) );
#63 = MECHANICAL_CONTEXT ( 'NONE', #136, 'mechanical' ) ;
#64 = ADVANCED_FACE ( 'NONE', ( #210, #59 ), #112, .F. ) ;
#65 = DIRECTION ( 'NONE',  ( 0.0000000000000000000, 1.000000000000000000, 0.0000000000000000000 ) ) ;
#66 = APPROVAL_PERSON_ORGANIZATION ( #221, #76, #30 ) ;
#67 = DIRECTION ( 'NONE',  ( -4.275831445896958607E-31, -1.000000000000000000, -1.224646799147353207E-16 ) ) ;
#68 = CARTESIAN_POINT ( 'NONE',  ( -1.562984023571883965E-30, -1.149999999999999023, -4.476564162561907982E-16 ) ) ;
#69 = EDGE_CURVE ( 'NONE', #178, #178, #149, .T. ) ;
#70 = FACE_OUTER_BOUND ( 'NONE', #167, .T. ) ;
#71 = LOCAL_TIME ( 10, 16, 23.00000000000000000, #111 ) ;
#72 = DIRECTION ( 'NONE',  ( -3.491481338843133355E-15, 1.227517819005651059E-16, -1.000000000000000000 ) ) ;
#73 = CARTESIAN_POINT ( 'NONE',  ( 1.326762908760390423E-13, 1.199999999999989297, 38.00000000000000000 ) ) ;
#74 = ADVANCED_BREP_SHAPE_REPRESENTATION ( '44877', ( #102, #106, #183 ), #158 ) ;
#75 = CIRCLE ( 'NONE', #142, 1.199999999999993738 ) ;
#76 = APPROVAL ( #203, 'UNSPECIFIED' ) ;
#77 = PERSON_AND_ORGANIZATION_ROLE ( 'classification_officer' ) ;
#78 = CALENDAR_DATE ( 2021, 1, 11 ) ;
#79 = EDGE_LOOP ( 'NONE', ( #138 ) ) ;
#80 = DATE_TIME_ROLE ( 'creation_date' ) ;
#81 = APPROVAL_STATUS ( 'not_yet_approved' ) ;
#82 = CALENDAR_DATE ( 2021, 1, 11 ) ;
#83 = DIRECTION ( 'NONE',  ( 0.0000000000000000000, 1.000000000000000000, 0.0000000000000000000 ) ) ;
#84 = DIRECTION ( 'NONE',  ( 0.0000000000000000000, 1.000000000000000000, 0.0000000000000000000 ) ) ;
#85 = CIRCLE ( 'NONE', #18, 1.149999999999999023 ) ;
#86 = FACE_OUTER_BOUND ( 'NONE', #19, .T. ) ;
#87 = CC_DESIGN_PERSON_AND_ORGANIZATION_ASSIGNMENT ( #43, #114, ( #41 ) ) ;
#88 = DIRECTION ( 'NONE',  ( -4.347792104868795754E-31, -1.000000000000000000, -1.227517819005651059E-16 ) ) ;
#89 = DIRECTION ( 'NONE',  ( -3.491481338843133355E-15, 1.224646799147353207E-16, -1.000000000000000000 ) ) ;
#90 = CONICAL_SURFACE ( 'NONE', #216, 1.199999999999993738, 0.7853981633974453924 ) ;
#91 = APPLICATION_CONTEXT ( 'configuration controlled 3d designs of mechanical parts and assemblies' ) ;
#92 = VERTEX_POINT ( 'NONE', #73 ) ;
#93 = ADVANCED_FACE ( 'NONE', ( #6, #200 ), #90, .T. ) ;
#94 = CC_DESIGN_APPROVAL ( #76, ( #166 ) ) ;
#95 = DIRECTION ( 'NONE',  ( 1.000000000000000000, 0.0000000000000000000, 0.0000000000000000000 ) ) ;
#96 = SECURITY_CLASSIFICATION_LEVEL ( 'unclassified' ) ;
#97 = EDGE_LOOP ( 'NONE', ( #170 ) ) ;
#98 = ORGANIZATION ( 'UNSPECIFIED', 'UNSPECIFIED', '' ) ;
#99 = CALENDAR_DATE ( 2021, 1, 11 ) ;
#100 = ADVANCED_FACE ( 'NONE', ( #86, #195 ), #38, .T. ) ;
#101 = PERSON_AND_ORGANIZATION_ROLE ( 'design_owner' ) ;
#102 = MANIFOLD_SOLID_BREP ( 'Corps-Déplacer/Copier1[1]', #188 ) ;
#103 = CARTESIAN_POINT ( 'NONE',  ( 2.444036937190193349E-14, 1.124819836996384448E-32, 7.000000000000000000 ) ) ;
#104 = FACE_OUTER_BOUND ( 'NONE', #42, .T. ) ;
#105 = AXIS2_PLACEMENT_3D ( 'NONE', #52, #22, #107 ) ;
#106 = MANIFOLD_SOLID_BREP ( 'Corps-Déplacer/Copier1[2]', #35 ) ;
#107 = DIRECTION ( 'NONE',  ( -4.275831445896958607E-31, -1.000000000000000000, -1.224646799147353207E-16 ) ) ;
#108 = EDGE_CURVE ( 'NONE', #8, #8, #51, .T. ) ;
#109 = AXIS2_PLACEMENT_3D ( 'NONE', #147, #156, #67 ) ;
#110 = EDGE_LOOP ( 'NONE', ( #1 ) ) ;
#111 = COORDINATED_UNIVERSAL_TIME_OFFSET ( 1, 0, .AHEAD. ) ;
#112 = TOROIDAL_SURFACE ( 'NONE', #211, 9.149999999999998579, 8.000000000000000000 ) ;
#113 = EDGE_LOOP ( 'NONE', ( #14 ) ) ;
#114 = PERSON_AND_ORGANIZATION_ROLE ( 'creator' ) ;
#115 = DATE_AND_TIME ( #171, #201 ) ;
#116 = EDGE_CURVE ( 'NONE', #92, #92, #75, .T. ) ;
#117 = APPLICATION_PROTOCOL_DEFINITION ( 'international standard', 'config_control_design', 1994, #136 ) ;
#118 = DIRECTION ( 'NONE',  ( 3.491481338843133355E-15, -1.227517819005651059E-16, 1.000000000000000000 ) ) ;
#119 = PERSON_AND_ORGANIZATION_ROLE ( 'design_supplier' ) ;
#120 = DIRECTION ( 'NONE',  ( -3.491481338843133355E-15, 1.224646799147353207E-16, -1.000000000000000000 ) ) ;
#121 = CARTESIAN_POINT ( 'NONE',  ( 1.326762908760390423E-13, -4.653657836759941941E-15, 38.00000000000000000 ) ) ;
#122 = DIRECTION ( 'NONE',  ( -3.491481338843133355E-15, 1.224646799147353207E-16, -1.000000000000000000 ) ) ;
#123 = CARTESIAN_POINT ( 'NONE',  ( 2.444036937190193033E-14, -8.592624733039555931E-16, 6.999999999999999112 ) ) ;
#124 = PRODUCT ( '44877', '44877', '', ( #63 ) ) ;
#125 = CARTESIAN_POINT ( 'NONE',  ( 3.261185306359184486E-14, -2.872890004500784884E-16, 9.340405947693666278 ) ) ;
#126 = ADVANCED_FACE ( 'NONE', ( #104 ), #37, .F. ) ;
#127 = CARTESIAN_POINT ( 'NONE',  ( 2.444036937190193033E-14, -1.150000000000001688, 6.999999999999999112 ) ) ;
#128 = AXIS2_PLACEMENT_3D ( 'NONE', #56, #89, #83 ) ;
#129 = CC_DESIGN_DATE_AND_TIME_ASSIGNMENT ( #17, #80, ( #4 ) ) ;
#130 = CC_DESIGN_APPROVAL ( #196, ( #41 ) ) ;
#131 = EDGE_LOOP ( 'NONE', ( #219 ) ) ;
#132 = CALENDAR_DATE ( 2021, 1, 11 ) ;
#133 = ORIENTED_EDGE ( 'NONE', *, *, #46, .T. ) ;
#134 = COORDINATED_UNIVERSAL_TIME_OFFSET ( 1, 0, .AHEAD. ) ;
#135 = CARTESIAN_POINT ( 'NONE',  ( -1.070110634383984048E-30, 1.507334016807271749E-32, -3.064918670705410029E-16 ) ) ;
#136 = APPLICATION_CONTEXT ( 'configuration controlled 3d designs of mechanical parts and assemblies' ) ;
#137 = APPROVAL_ROLE ( '' ) ;
#138 = ORIENTED_EDGE ( 'NONE', *, *, #176, .T. ) ;
#139 =( NAMED_UNIT ( * ) SI_UNIT ( $, .STERADIAN. ) SOLID_ANGLE_UNIT ( ) );
#140 = EDGE_LOOP ( 'NONE', ( #174 ) ) ;
#141 = DIRECTION ( 'NONE',  ( -4.285855558155653280E-31, -1.000000000000000000, -1.227517819005651305E-16 ) ) ;
#142 = AXIS2_PLACEMENT_3D ( 'NONE', #121, #194, #84 ) ;
#143 = VERTEX_POINT ( 'NONE', #209 ) ;
#144 = DIRECTION ( 'NONE',  ( -3.491481338843133355E-15, 1.224646799147353207E-16, -1.000000000000000000 ) ) ;
#145 = PLANE ( 'NONE',  #2 ) ;
#146 = CC_DESIGN_APPROVAL ( #33, ( #4 ) ) ;
#147 = CARTESIAN_POINT ( 'NONE',  ( 2.444036937190193349E-14, 1.124819836996384448E-32, 7.000000000000000000 ) ) ;
#148 = VERTEX_POINT ( 'NONE', #214 ) ;
#149 = CIRCLE ( 'NONE', #45, 1.499999999999991784 ) ;
#150 = ADVANCED_FACE ( 'NONE', ( #182 ), #213, .F. ) ;
#151 = APPLICATION_PROTOCOL_DEFINITION ( 'international standard', 'config_control_design', 1994, #91 ) ;
#152 = APPROVAL_DATE_TIME ( #115, #76 ) ;
#153 = DATE_AND_TIME ( #132, #28 ) ;
#154 = EDGE_LOOP ( 'NONE', ( #133 ) ) ;
#155 = DATE_AND_TIME ( #78, #71 ) ;
#156 = DIRECTION ( 'NONE',  ( 3.491481338843133355E-15, -1.224646799147353207E-16, 1.000000000000000000 ) ) ;
#157 = CARTESIAN_POINT ( 'NONE',  ( 1.326762908760390423E-13, -4.653657836759941941E-15, 38.00000000000000000 ) ) ;
#158 =( GEOMETRIC_REPRESENTATION_CONTEXT ( 3 ) GLOBAL_UNCERTAINTY_ASSIGNED_CONTEXT ( ( #9 ) ) GLOBAL_UNIT_ASSIGNED_CONTEXT ( ( #40, #62, #139 ) ) REPRESENTATION_CONTEXT ( 'NONE', 'WORKASPACE' ) );
#159 = DIRECTION ( 'NONE',  ( 3.491481338843133355E-15, -1.227517819005651059E-16, 1.000000000000000000 ) ) ;
#160 = FACE_OUTER_BOUND ( 'NONE', #154, .T. ) ;
#161 = CARTESIAN_POINT ( 'NONE',  ( 3.261185306359184486E-14, 1.499999999999991562, 9.340405947693666278 ) ) ;
#162 = ADVANCED_FACE ( 'NONE', ( #3, #70 ), #36, .T. ) ;
#163 = PRODUCT_RELATED_PRODUCT_CATEGORY ( 'detail', '', ( #124 ) ) ;
#164 = AXIS2_PLACEMENT_3D ( 'NONE', #58, #7, #141 ) ;
#165 = ADVANCED_FACE ( 'NONE', ( #180 ), #145, .F. ) ;
#166 = SECURITY_CLASSIFICATION ( '', '', #96 ) ;
#167 = EDGE_LOOP ( 'NONE', ( #48 ) ) ;
#168 = PERSON_AND_ORGANIZATION ( #15, #98 ) ;
#169 = CC_DESIGN_PERSON_AND_ORGANIZATION_ASSIGNMENT ( #190, #172, ( #4 ) ) ;
#170 = ORIENTED_EDGE ( 'NONE', *, *, #46, .F. ) ;
#171 = CALENDAR_DATE ( 2021, 1, 11 ) ;
#172 = PERSON_AND_ORGANIZATION_ROLE ( 'creator' ) ;
#173 = APPROVAL_PERSON_ORGANIZATION ( #13, #196, #44 ) ;
#174 = ORIENTED_EDGE ( 'NONE', *, *, #176, .F. ) ;
#175 = DIRECTION ( 'NONE',  ( 0.0000000000000000000, 0.0000000000000000000, 1.000000000000000000 ) ) ;
#176 = EDGE_CURVE ( 'NONE', #148, #148, #218, .T. ) ;
#177 = CARTESIAN_POINT ( 'NONE',  ( 0.0000000000000000000, 0.0000000000000000000, 0.0000000000000000000 ) ) ;
#178 = VERTEX_POINT ( 'NONE', #161 ) ;
#179 = AXIS2_PLACEMENT_3D ( 'NONE', #123, #159, #208 ) ;
#180 = FACE_OUTER_BOUND ( 'NONE', #113, .T. ) ;
#181 = DIRECTION ( 'NONE',  ( 3.491481338843133355E-15, -1.224646799147353207E-16, 1.000000000000000000 ) ) ;
#182 = FACE_OUTER_BOUND ( 'NONE', #29, .T. ) ;
#183 = AXIS2_PLACEMENT_3D ( 'NONE', #49, #175, #95 ) ;
#184 = ADVANCED_FACE ( 'NONE', ( #160 ), #21, .T. ) ;
#185 = AXIS2_PLACEMENT_3D ( 'NONE', #177, #120, #34 ) ;
#186 = ORIENTED_EDGE ( 'NONE', *, *, #54, .T. ) ;
#187 = PERSON_AND_ORGANIZATION ( #15, #98 ) ;
#188 = CLOSED_SHELL ( 'NONE', ( #162, #93, #150, #64, #165 ) ) ;
#189 = CC_DESIGN_SECURITY_CLASSIFICATION ( #166, ( #41 ) ) ;
#190 = PERSON_AND_ORGANIZATION ( #15, #98 ) ;
#191 = CIRCLE ( 'NONE', #198, 1.150000000000000799 ) ;
#192 = DIRECTION ( 'NONE',  ( -4.285855558155654155E-31, -1.000000000000000000, -1.227517819005651305E-16 ) ) ;
#193 = PERSON_AND_ORGANIZATION ( #15, #98 ) ;
#194 = DIRECTION ( 'NONE',  ( -3.491481338843133355E-15, 1.224646799147353207E-16, -1.000000000000000000 ) ) ;
#195 = FACE_OUTER_BOUND ( 'NONE', #97, .T. ) ;
#196 = APPROVAL ( #81, 'UNSPECIFIED' ) ;
#197 = CARTESIAN_POINT ( 'NONE',  ( 1.326762908760390423E-13, 8.998558695971030697E-33, 38.00000000000000000 ) ) ;
#198 = AXIS2_PLACEMENT_3D ( 'NONE', #222, #61, #26 ) ;
#199 = DIRECTION ( 'NONE',  ( 0.0000000000000000000, 1.000000000000000000, 0.0000000000000000000 ) ) ;
#200 = FACE_BOUND ( 'NONE', #204, .T. ) ;
#201 = LOCAL_TIME ( 10, 16, 23.00000000000000000, #134 ) ;
#202 = ORIENTED_EDGE ( 'NONE', *, *, #54, .F. ) ;
#203 = APPROVAL_STATUS ( 'not_yet_approved' ) ;
#204 = EDGE_LOOP ( 'NONE', ( #16 ) ) ;
#205 = ORIENTED_EDGE ( 'NONE', *, *, #116, .F. ) ;
#206 = PERSON_AND_ORGANIZATION ( #15, #98 ) ;
#207 = LOCAL_TIME ( 10, 16, 23.00000000000000000, #12 ) ;
#208 = DIRECTION ( 'NONE',  ( 0.0000000000000000000, -1.000000000000000000, 0.0000000000000000000 ) ) ;
#209 = CARTESIAN_POINT ( 'NONE',  ( 2.444036937190193033E-14, -1.150000000000001688, 6.999999999999999112 ) ) ;
#210 = FACE_OUTER_BOUND ( 'NONE', #110, .T. ) ;
#211 = AXIS2_PLACEMENT_3D ( 'NONE', #212, #23, #88 ) ;
#212 = CARTESIAN_POINT ( 'NONE',  ( 2.444036937190193033E-14, 0.0000000000000000000, 6.999999999999999112 ) ) ;
#213 = PLANE ( 'NONE',  #11 ) ;
#214 = CARTESIAN_POINT ( 'NONE',  ( 1.316288464743861212E-13, 1.499999999999989120, 37.69999999999999574 ) ) ;
#215 = CC_DESIGN_PERSON_AND_ORGANIZATION_ASSIGNMENT ( #187, #101, ( #124 ) ) ;
#216 = AXIS2_PLACEMENT_3D ( 'NONE', #157, #144, #199 ) ;
#217 = CC_DESIGN_DATE_AND_TIME_ASSIGNMENT ( #153, #27, ( #166 ) ) ;
#218 = CIRCLE ( 'NONE', #128, 1.499999999999993783 ) ;
#219 = ORIENTED_EDGE ( 'NONE', *, *, #69, .T. ) ;
#220 = COORDINATED_UNIVERSAL_TIME_OFFSET ( 1, 0, .AHEAD. ) ;
#221 = PERSON_AND_ORGANIZATION ( #15, #98 ) ;
#222 = CARTESIAN_POINT ( 'NONE',  ( 2.444036937190193033E-14, -8.592624733039555931E-16, 6.999999999999999112 ) ) ;
#223 = SHAPE_DEFINITION_REPRESENTATION ( #53, #74 ) ;
ENDSEC;
END-ISO-10303-21;
