ISO-10303-21;
HEADER;
FILE_DESCRIPTION (( 'STEP AP203' ),
    '1' );
FILE_NAME ('44762.step',
    '2021-11-09T09:06:48',
    ( '' ),
    ( '' ),
    'SwSTEP 2.0',
    'SolidWorks 2019',
    '' );
FILE_SCHEMA (( 'CONFIG_CONTROL_DESIGN' ));
ENDSEC;

DATA;
#1 = PERSON_AND_ORGANIZATION_ROLE ( 'classification_officer' ) ;
#2 = DIRECTION ( 'NONE',  ( 1.000000000000000000, 0.0000000000000000000, 0.0000000000000000000 ) ) ;
#3 = CC_DESIGN_PERSON_AND_ORGANIZATION_ASSIGNMENT ( #159, #68, ( #27 ) ) ;
#4 = CC_DESIGN_SECURITY_CLASSIFICATION ( #147, ( #137 ) ) ;
#5 = UNCERTAINTY_MEASURE_WITH_UNIT (LENGTH_MEASURE( 1.000000000000000082E-05 ), #75, 'distance_accuracy_value', 'NONE');
#6 = ORIENTED_EDGE ( 'NONE', *, *, #40, .T. ) ;
#7 = EDGE_LOOP ( 'NONE', ( #97 ) ) ;
#8 = DIRECTION ( 'NONE',  ( -3.491481338843133355E-15, 1.224646799147353207E-16, -1.000000000000000000 ) ) ;
#9 = CIRCLE ( 'NONE', #192, 6.000000000000003553 ) ;
#10 = PLANE ( 'NONE',  #38 ) ;
#11 = CARTESIAN_POINT ( 'NONE',  ( 1.571166602479409884E-13, 5.999999999999994671, 45.00000000000000000 ) ) ;
#12 = DIRECTION ( 'NONE',  ( 4.275831445896958607E-31, 1.000000000000000000, 1.224646799147353207E-16 ) ) ;
#13 = APPROVAL_ROLE ( '' ) ;
#14 = PERSON_AND_ORGANIZATION ( #152, #110 ) ;
#15 = ADVANCED_FACE ( 'NONE', ( #132, #109 ), #114, .T. ) ;
#16 = APPROVAL_DATE_TIME ( #122, #143 ) ;
#17 = LOCAL_TIME ( 10, 6, 48.00000000000000000, #203 ) ;
#18 = CALENDAR_DATE ( 2021, 9, 11 ) ;
#19 = PRODUCT_DEFINITION_SHAPE ( 'NONE', 'NONE',  #62 ) ;
#20 = CALENDAR_DATE ( 2021, 9, 11 ) ;
#21 = EDGE_CURVE ( 'NONE', #116, #116, #153, .T. ) ;
#22 = EDGE_LOOP ( 'NONE', ( #24 ) ) ;
#23 = EDGE_LOOP ( 'NONE', ( #177 ) ) ;
#24 = ORIENTED_EDGE ( 'NONE', *, *, #73, .F. ) ;
#25 = CC_DESIGN_PERSON_AND_ORGANIZATION_ASSIGNMENT ( #76, #106, ( #137 ) ) ;
#26 = PLANE ( 'NONE',  #182 ) ;
#27 = PRODUCT ( '44762', '44762', '', ( #174 ) ) ;
#28 = DIRECTION ( 'NONE',  ( 0.0000000000000000000, 1.000000000000000000, 0.0000000000000000000 ) ) ;
#29 = VERTEX_POINT ( 'NONE', #58 ) ;
#30 =( NAMED_UNIT ( * ) SI_UNIT ( $, .STERADIAN. ) SOLID_ANGLE_UNIT ( ) );
#31 = APPROVAL_DATE_TIME ( #78, #168 ) ;
#32 = ADVANCED_FACE ( 'NONE', ( #130, #179 ), #69, .T. ) ;
#33 = COORDINATED_UNIVERSAL_TIME_OFFSET ( 1, 0, .AHEAD. ) ;
#34 = AXIS2_PLACEMENT_3D ( 'NONE', #53, #134, #39 ) ;
#35 = AXIS2_PLACEMENT_3D ( 'NONE', #72, #202, #103 ) ;
#36 = ADVANCED_FACE ( 'NONE', ( #185 ), #26, .F. ) ;
#37 = ORIENTED_EDGE ( 'NONE', *, *, #40, .F. ) ;
#38 = AXIS2_PLACEMENT_3D ( 'NONE', #100, #43, #136 ) ;
#39 = DIRECTION ( 'NONE',  ( 4.275831445896959482E-31, 1.000000000000000000, 1.224646799147353207E-16 ) ) ;
#40 = EDGE_CURVE ( 'NONE', #45, #45, #94, .T. ) ;
#41 = APPROVAL_PERSON_ORGANIZATION ( #124, #112, #47 ) ;
#42 = ADVANCED_BREP_SHAPE_REPRESENTATION ( '44762', ( #95, #91, #158 ), #65 ) ;
#43 = DIRECTION ( 'NONE',  ( 3.491481338843133355E-15, -1.224646799147353207E-16, 1.000000000000000000 ) ) ;
#44 = DIRECTION ( 'NONE',  ( 4.275831445896958607E-31, 1.000000000000000000, 1.224646799147353207E-16 ) ) ;
#45 = VERTEX_POINT ( 'NONE', #11 ) ;
#46 = FACE_OUTER_BOUND ( 'NONE', #84, .T. ) ;
#47 = APPROVAL_ROLE ( '' ) ;
#48 = CALENDAR_DATE ( 2021, 9, 11 ) ;
#49 = APPROVAL_ROLE ( '' ) ;
#50 = EDGE_LOOP ( 'NONE', ( #151 ) ) ;
#51 = ORIENTED_EDGE ( 'NONE', *, *, #92, .T. ) ;
#52 = EDGE_CURVE ( 'NONE', #29, #29, #9, .T. ) ;
#53 = CARTESIAN_POINT ( 'NONE',  ( 0.0000000000000000000, 0.0000000000000000000, 0.0000000000000000000 ) ) ;
#54 = ORIENTED_EDGE ( 'NONE', *, *, #92, .F. ) ;
#55 = AXIS2_PLACEMENT_3D ( 'NONE', #141, #165, #61 ) ;
#56 = CARTESIAN_POINT ( 'NONE',  ( 3.491481338843133355E-13, -1.224646799147353217E-14, 100.0000000000000000 ) ) ;
#57 = FACE_BOUND ( 'NONE', #194, .T. ) ;
#58 = CARTESIAN_POINT ( 'NONE',  ( 3.474023932148917752E-13, 5.999999999999991118, 99.50000000000000000 ) ) ;
#59 = DIRECTION ( 'NONE',  ( 0.0000000000000000000, 1.000000000000000000, 0.0000000000000000000 ) ) ;
#60 = AXIS2_PLACEMENT_3D ( 'NONE', #157, #8, #166 ) ;
#61 = DIRECTION ( 'NONE',  ( 0.0000000000000000000, 1.000000000000000000, 0.0000000000000000000 ) ) ;
#62 = PRODUCT_DEFINITION ( 'UNKNOWN', '', #137, #71 ) ;
#63 = PERSON_AND_ORGANIZATION_ROLE ( 'creator' ) ;
#64 = DATE_TIME_ROLE ( 'classification_date' ) ;
#65 =( GEOMETRIC_REPRESENTATION_CONTEXT ( 3 ) GLOBAL_UNCERTAINTY_ASSIGNED_CONTEXT ( ( #5 ) ) GLOBAL_UNIT_ASSIGNED_CONTEXT ( ( #75, #156, #30 ) ) REPRESENTATION_CONTEXT ( 'NONE', 'WORKASPACE' ) );
#66 = APPROVAL_STATUS ( 'not_yet_approved' ) ;
#67 = APPLICATION_PROTOCOL_DEFINITION ( 'international standard', 'config_control_design', 1994, #171 ) ;
#68 = PERSON_AND_ORGANIZATION_ROLE ( 'design_owner' ) ;
#69 = CYLINDRICAL_SURFACE ( 'NONE', #187, 6.000000000000001776 ) ;
#70 = PRODUCT_RELATED_PRODUCT_CATEGORY ( 'detail', '', ( #27 ) ) ;
#71 = DESIGN_CONTEXT ( 'detailed design', #171, 'design' ) ;
#72 = CARTESIAN_POINT ( 'NONE',  ( 3.474023932148917752E-13, -1.218523565151616460E-14, 99.50000000000000000 ) ) ;
#73 = EDGE_CURVE ( 'NONE', #140, #140, #82, .T. ) ;
#74 = CARTESIAN_POINT ( 'NONE',  ( 0.0000000000000000000, 6.000000000000000000, 0.0000000000000000000 ) ) ;
#75 =( LENGTH_UNIT ( ) NAMED_UNIT ( * ) SI_UNIT ( .MILLI., .METRE. ) );
#76 = PERSON_AND_ORGANIZATION ( #152, #110 ) ;
#77 = SECURITY_CLASSIFICATION_LEVEL ( 'unclassified' ) ;
#78 = DATE_AND_TIME ( #48, #201 ) ;
#79 = CALENDAR_DATE ( 2021, 9, 11 ) ;
#80 = CARTESIAN_POINT ( 'NONE',  ( 0.0000000000000000000, 0.0000000000000000000, 0.0000000000000000000 ) ) ;
#81 = EDGE_LOOP ( 'NONE', ( #54 ) ) ;
#82 = CIRCLE ( 'NONE', #55, 6.000000000000000000 ) ;
#83 = LOCAL_TIME ( 10, 6, 48.00000000000000000, #146 ) ;
#84 = EDGE_LOOP ( 'NONE', ( #37 ) ) ;
#85 = FACE_OUTER_BOUND ( 'NONE', #7, .T. ) ;
#86 = DIRECTION ( 'NONE',  ( 3.491481338843133355E-15, -1.224646799147353207E-16, 1.000000000000000000 ) ) ;
#87 = CARTESIAN_POINT ( 'NONE',  ( 3.491481338843133355E-13, 5.499999999999991118, 100.0000000000000000 ) ) ;
#88 = DIRECTION ( 'NONE',  ( -3.491481338843133355E-15, 1.224646799147353207E-16, -1.000000000000000000 ) ) ;
#89 = CLOSED_SHELL ( 'NONE', ( #184, #15, #155 ) ) ;
#90 = CC_DESIGN_APPROVAL ( #112, ( #147 ) ) ;
#91 = MANIFOLD_SOLID_BREP ( 'Corps-Déplacer/Copier1[2]', #89 ) ;
#92 = EDGE_CURVE ( 'NONE', #117, #117, #169, .T. ) ;
#93 = PERSON_AND_ORGANIZATION ( #152, #110 ) ;
#94 = CIRCLE ( 'NONE', #60, 6.000000000000000000 ) ;
#95 = MANIFOLD_SOLID_BREP ( 'Corps-Déplacer/Copier1[1]', #118 ) ;
#96 = ADVANCED_FACE ( 'NONE', ( #181 ), #10, .F. ) ;
#97 = ORIENTED_EDGE ( 'NONE', *, *, #52, .F. ) ;
#98 = CARTESIAN_POINT ( 'NONE',  ( 1.571166602479409884E-13, 4.499279347985565160E-32, 45.00000000000000000 ) ) ;
#99 = CC_DESIGN_PERSON_AND_ORGANIZATION_ASSIGNMENT ( #172, #1, ( #147 ) ) ;
#100 = CARTESIAN_POINT ( 'NONE',  ( 1.571166602479409884E-13, 4.499279347985565160E-32, 45.00000000000000000 ) ) ;
#101 = APPROVAL_PERSON_ORGANIZATION ( #104, #168, #13 ) ;
#102 = DIRECTION ( 'NONE',  ( 4.275831445896958607E-31, 1.000000000000000000, 1.224646799147353207E-16 ) ) ;
#103 = DIRECTION ( 'NONE',  ( 0.0000000000000000000, 1.000000000000000000, 0.0000000000000000000 ) ) ;
#104 = PERSON_AND_ORGANIZATION ( #152, #110 ) ;
#105 = PERSON_AND_ORGANIZATION ( #152, #110 ) ;
#106 = PERSON_AND_ORGANIZATION_ROLE ( 'design_supplier' ) ;
#107 = DATE_AND_TIME ( #190, #83 ) ;
#108 = PERSON_AND_ORGANIZATION_ROLE ( 'creator' ) ;
#109 = FACE_OUTER_BOUND ( 'NONE', #23, .T. ) ;
#110 = ORGANIZATION ( 'UNSPECIFIED', 'UNSPECIFIED', '' ) ;
#111 = EDGE_LOOP ( 'NONE', ( #163 ) ) ;
#112 = APPROVAL ( #189, 'UNSPECIFIED' ) ;
#113 = DIRECTION ( 'NONE',  ( 4.275831445896959482E-31, 1.000000000000000000, 1.224646799147353207E-16 ) ) ;
#114 = CYLINDRICAL_SURFACE ( 'NONE', #34, 6.000000000000000000 ) ;
#115 = LOCAL_TIME ( 10, 6, 48.00000000000000000, #142 ) ;
#116 = VERTEX_POINT ( 'NONE', #74 ) ;
#117 = VERTEX_POINT ( 'NONE', #87 ) ;
#118 = CLOSED_SHELL ( 'NONE', ( #96, #32, #133, #36 ) ) ;
#119 = CONICAL_SURFACE ( 'NONE', #35, 6.000000000000003553, 0.7853981633974482790 ) ;
#120 = DIRECTION ( 'NONE',  ( -3.491481338843133355E-15, 1.224646799147353207E-16, -1.000000000000000000 ) ) ;
#121 = DIRECTION ( 'NONE',  ( -3.491481338843133355E-15, 1.224646799147353207E-16, -1.000000000000000000 ) ) ;
#122 = DATE_AND_TIME ( #79, #17 ) ;
#123 = AXIS2_PLACEMENT_3D ( 'NONE', #56, #120, #28 ) ;
#124 = PERSON_AND_ORGANIZATION ( #152, #110 ) ;
#125 = CC_DESIGN_DATE_AND_TIME_ASSIGNMENT ( #144, #64, ( #147 ) ) ;
#126 = APPROVAL_STATUS ( 'not_yet_approved' ) ;
#127 = APPROVAL_DATE_TIME ( #145, #112 ) ;
#128 = DIRECTION ( 'NONE',  ( 0.0000000000000000000, 0.0000000000000000000, 1.000000000000000000 ) ) ;
#129 = AXIS2_PLACEMENT_3D ( 'NONE', #164, #88, #102 ) ;
#130 = FACE_OUTER_BOUND ( 'NONE', #111, .T. ) ;
#131 = ORIENTED_EDGE ( 'NONE', *, *, #21, .T. ) ;
#132 = FACE_OUTER_BOUND ( 'NONE', #149, .T. ) ;
#133 = ADVANCED_FACE ( 'NONE', ( #57, #85 ), #119, .T. ) ;
#134 = DIRECTION ( 'NONE',  ( -3.491481338843133355E-15, 1.224646799147353207E-16, -1.000000000000000000 ) ) ;
#135 = CC_DESIGN_PERSON_AND_ORGANIZATION_ASSIGNMENT ( #14, #63, ( #137 ) ) ;
#136 = DIRECTION ( 'NONE',  ( -4.275831445896958607E-31, -1.000000000000000000, -1.224646799147353207E-16 ) ) ;
#137 = PRODUCT_DEFINITION_FORMATION_WITH_SPECIFIED_SOURCE ( 'ANY', '', #27, .NOT_KNOWN. ) ;
#138 = DIRECTION ( 'NONE',  ( -3.491481338843133355E-15, 1.224646799147353207E-16, -1.000000000000000000 ) ) ;
#139 = CARTESIAN_POINT ( 'NONE',  ( 1.571166602479409884E-13, 5.999999999999994671, 45.00000000000000000 ) ) ;
#140 = VERTEX_POINT ( 'NONE', #139 ) ;
#141 = CARTESIAN_POINT ( 'NONE',  ( 1.571166602479409884E-13, -5.510910596163089556E-15, 45.00000000000000000 ) ) ;
#142 = COORDINATED_UNIVERSAL_TIME_OFFSET ( 1, 0, .AHEAD. ) ;
#143 = APPROVAL ( #126, 'UNSPECIFIED' ) ;
#144 = DATE_AND_TIME ( #20, #115 ) ;
#145 = DATE_AND_TIME ( #18, #188 ) ;
#146 = COORDINATED_UNIVERSAL_TIME_OFFSET ( 1, 0, .AHEAD. ) ;
#147 = SECURITY_CLASSIFICATION ( '', '', #77 ) ;
#148 = APPLICATION_CONTEXT ( 'configuration controlled 3d designs of mechanical parts and assemblies' ) ;
#149 = EDGE_LOOP ( 'NONE', ( #6 ) ) ;
#150 = AXIS2_PLACEMENT_3D ( 'NONE', #98, #86, #154 ) ;
#151 = ORIENTED_EDGE ( 'NONE', *, *, #73, .T. ) ;
#152 = PERSON ( 'UNSPECIFIED', 'UNSPECIFIED', 'UNSPECIFIED', ('UNSPECIFIED'), ('UNSPECIFIED'), ('UNSPECIFIED') ) ;
#153 = CIRCLE ( 'NONE', #161, 6.000000000000000000 ) ;
#154 = DIRECTION ( 'NONE',  ( -4.275831445896958607E-31, -1.000000000000000000, -1.224646799147353207E-16 ) ) ;
#155 = ADVANCED_FACE ( 'NONE', ( #46 ), #180, .T. ) ;
#156 =( NAMED_UNIT ( * ) PLANE_ANGLE_UNIT ( ) SI_UNIT ( $, .RADIAN. ) );
#157 = CARTESIAN_POINT ( 'NONE',  ( 1.571166602479409884E-13, -5.510910596163089556E-15, 45.00000000000000000 ) ) ;
#158 = AXIS2_PLACEMENT_3D ( 'NONE', #80, #128, #2 ) ;
#159 = PERSON_AND_ORGANIZATION ( #152, #110 ) ;
#160 = COORDINATED_UNIVERSAL_TIME_OFFSET ( 1, 0, .AHEAD. ) ;
#161 = AXIS2_PLACEMENT_3D ( 'NONE', #162, #195, #113 ) ;
#162 = CARTESIAN_POINT ( 'NONE',  ( -2.565498867538175514E-30, 8.998558695971145647E-32, -7.347880794884119736E-16 ) ) ;
#163 = ORIENTED_EDGE ( 'NONE', *, *, #52, .T. ) ;
#164 = CARTESIAN_POINT ( 'NONE',  ( -1.282749433769087757E-30, 4.499279347985572824E-32, -3.673940397442059868E-16 ) ) ;
#165 = DIRECTION ( 'NONE',  ( -3.491481338843133355E-15, 1.224646799147353207E-16, -1.000000000000000000 ) ) ;
#166 = DIRECTION ( 'NONE',  ( 0.0000000000000000000, 1.000000000000000000, 0.0000000000000000000 ) ) ;
#167 = CARTESIAN_POINT ( 'NONE',  ( 3.474023932148917752E-13, -1.218523565151616460E-14, 99.50000000000000000 ) ) ;
#168 = APPROVAL ( #66, 'UNSPECIFIED' ) ;
#169 = CIRCLE ( 'NONE', #123, 5.500000000000003553 ) ;
#170 = DATE_TIME_ROLE ( 'creation_date' ) ;
#171 = APPLICATION_CONTEXT ( 'configuration controlled 3d designs of mechanical parts and assemblies' ) ;
#172 = PERSON_AND_ORGANIZATION ( #152, #110 ) ;
#173 = CC_DESIGN_APPROVAL ( #143, ( #62 ) ) ;
#174 = MECHANICAL_CONTEXT ( 'NONE', #148, 'mechanical' ) ;
#175 = EDGE_LOOP ( 'NONE', ( #131 ) ) ;
#176 = CC_DESIGN_PERSON_AND_ORGANIZATION_ASSIGNMENT ( #93, #108, ( #62 ) ) ;
#177 = ORIENTED_EDGE ( 'NONE', *, *, #21, .F. ) ;
#178 = CC_DESIGN_APPROVAL ( #168, ( #137 ) ) ;
#179 = FACE_OUTER_BOUND ( 'NONE', #22, .T. ) ;
#180 = PLANE ( 'NONE',  #150 ) ;
#181 = FACE_OUTER_BOUND ( 'NONE', #50, .T. ) ;
#182 = AXIS2_PLACEMENT_3D ( 'NONE', #200, #183, #44 ) ;
#183 = DIRECTION ( 'NONE',  ( -3.491481338843133355E-15, 1.224646799147353207E-16, -1.000000000000000000 ) ) ;
#184 = ADVANCED_FACE ( 'NONE', ( #198 ), #199, .T. ) ;
#185 = FACE_OUTER_BOUND ( 'NONE', #81, .T. ) ;
#186 = APPLICATION_PROTOCOL_DEFINITION ( 'international standard', 'config_control_design', 1994, #148 ) ;
#187 = AXIS2_PLACEMENT_3D ( 'NONE', #193, #121, #12 ) ;
#188 = LOCAL_TIME ( 10, 6, 48.00000000000000000, #33 ) ;
#189 = APPROVAL_STATUS ( 'not_yet_approved' ) ;
#190 = CALENDAR_DATE ( 2021, 9, 11 ) ;
#191 = SHAPE_DEFINITION_REPRESENTATION ( #19, #42 ) ;
#192 = AXIS2_PLACEMENT_3D ( 'NONE', #167, #138, #59 ) ;
#193 = CARTESIAN_POINT ( 'NONE',  ( 0.0000000000000000000, 0.0000000000000000000, 0.0000000000000000000 ) ) ;
#194 = EDGE_LOOP ( 'NONE', ( #51 ) ) ;
#195 = DIRECTION ( 'NONE',  ( -3.491481338843133355E-15, 1.224646799147353207E-16, -1.000000000000000000 ) ) ;
#196 = APPROVAL_PERSON_ORGANIZATION ( #105, #143, #49 ) ;
#197 = CC_DESIGN_DATE_AND_TIME_ASSIGNMENT ( #107, #170, ( #62 ) ) ;
#198 = FACE_OUTER_BOUND ( 'NONE', #175, .T. ) ;
#199 = PLANE ( 'NONE',  #129 ) ;
#200 = CARTESIAN_POINT ( 'NONE',  ( 3.491481338843133355E-13, 4.124339402320093095E-32, 100.0000000000000000 ) ) ;
#201 = LOCAL_TIME ( 10, 6, 48.00000000000000000, #160 ) ;
#202 = DIRECTION ( 'NONE',  ( -3.491481338843133355E-15, 1.224646799147353207E-16, -1.000000000000000000 ) ) ;
#203 = COORDINATED_UNIVERSAL_TIME_OFFSET ( 1, 0, .AHEAD. ) ;
ENDSEC;
END-ISO-10303-21;
