ISO-10303-21;
HEADER;
FILE_DESCRIPTION (( 'STEP AP203' ),
    '1' );
FILE_NAME ('44761.step',
    '2021-11-09T09:06:47',
    ( '' ),
    ( '' ),
    'SwSTEP 2.0',
    'SolidWorks 2019',
    '' );
FILE_SCHEMA (( 'CONFIG_CONTROL_DESIGN' ));
ENDSEC;

DATA;
#1 = PLANE ( 'NONE',  #61 ) ;
#2 = CC_DESIGN_PERSON_AND_ORGANIZATION_ASSIGNMENT ( #66, #83, ( #133 ) ) ;
#3 = PERSON_AND_ORGANIZATION_ROLE ( 'creator' ) ;
#4 = AXIS2_PLACEMENT_3D ( 'NONE', #144, #69, #8 ) ;
#5 = APPROVAL_DATE_TIME ( #192, #158 ) ;
#6 = CONICAL_SURFACE ( 'NONE', #89, 5.000000000000002665, 0.7853981633974482790 ) ;
#7 = FACE_BOUND ( 'NONE', #125, .T. ) ;
#8 = DIRECTION ( 'NONE',  ( -4.275831445896958607E-31, -1.000000000000000000, -1.224646799147353207E-16 ) ) ;
#9 = FACE_OUTER_BOUND ( 'NONE', #136, .T. ) ;
#10 = ADVANCED_FACE ( 'NONE', ( #113, #165 ), #194, .T. ) ;
#11 = ORIENTED_EDGE ( 'NONE', *, *, #142, .T. ) ;
#12 = CARTESIAN_POINT ( 'NONE',  ( 3.474023932148917752E-13, 4.999999999999990230, 99.50000000000000000 ) ) ;
#13 = DIRECTION ( 'NONE',  ( -4.275831445896958607E-31, -1.000000000000000000, -1.224646799147353207E-16 ) ) ;
#14 = AXIS2_PLACEMENT_3D ( 'NONE', #127, #151, #72 ) ;
#15 = CARTESIAN_POINT ( 'NONE',  ( 3.491481338843133355E-13, -1.224646799147353217E-14, 100.0000000000000000 ) ) ;
#16 = MECHANICAL_CONTEXT ( 'NONE', #155, 'mechanical' ) ;
#17 = CARTESIAN_POINT ( 'NONE',  ( -2.137915722948479128E-30, 7.498798913309288039E-32, -6.123233995736766282E-16 ) ) ;
#18 = PRODUCT_RELATED_PRODUCT_CATEGORY ( 'detail', '', ( #133 ) ) ;
#19 = CALENDAR_DATE ( 2021, 9, 11 ) ;
#20 = SECURITY_CLASSIFICATION ( '', '', #134 ) ;
#21 = COORDINATED_UNIVERSAL_TIME_OFFSET ( 1, 0, .AHEAD. ) ;
#22 = CALENDAR_DATE ( 2021, 9, 11 ) ;
#23 = PERSON ( 'UNSPECIFIED', 'UNSPECIFIED', 'UNSPECIFIED', ('UNSPECIFIED'), ('UNSPECIFIED'), ('UNSPECIFIED') ) ;
#24 = ORGANIZATION ( 'UNSPECIFIED', 'UNSPECIFIED', '' ) ;
#25 = ADVANCED_FACE ( 'NONE', ( #140 ), #137, .T. ) ;
#26 = DIRECTION ( 'NONE',  ( 4.275831445896958607E-31, 1.000000000000000000, 1.224646799147353207E-16 ) ) ;
#27 = CARTESIAN_POINT ( 'NONE',  ( 0.0000000000000000000, 5.000000000000000000, 0.0000000000000000000 ) ) ;
#28 = ORIENTED_EDGE ( 'NONE', *, *, #150, .T. ) ;
#29 = ORIENTED_EDGE ( 'NONE', *, *, #142, .F. ) ;
#30 = DIRECTION ( 'NONE',  ( 0.0000000000000000000, 1.000000000000000000, 0.0000000000000000000 ) ) ;
#31 = AXIS2_PLACEMENT_3D ( 'NONE', #99, #167, #129 ) ;
#32 = CC_DESIGN_PERSON_AND_ORGANIZATION_ASSIGNMENT ( #189, #68, ( #20 ) ) ;
#33 = VERTEX_POINT ( 'NONE', #77 ) ;
#34 = APPROVAL_STATUS ( 'not_yet_approved' ) ;
#35 = APPROVAL_STATUS ( 'not_yet_approved' ) ;
#36 = PRODUCT_DEFINITION_SHAPE ( 'NONE', 'NONE',  #190 ) ;
#37 = PERSON_AND_ORGANIZATION ( #23, #24 ) ;
#38 = LOCAL_TIME ( 10, 6, 47.00000000000000000, #102 ) ;
#39 = APPROVAL_DATE_TIME ( #179, #163 ) ;
#40 = ADVANCED_BREP_SHAPE_REPRESENTATION ( '44761', ( #81, #146, #173 ), #118 ) ;
#41 = ADVANCED_FACE ( 'NONE', ( #56 ), #197, .F. ) ;
#42 = EDGE_LOOP ( 'NONE', ( #28 ) ) ;
#43 = CC_DESIGN_SECURITY_CLASSIFICATION ( #20, ( #84 ) ) ;
#44 = DIRECTION ( 'NONE',  ( 4.275831445896958607E-31, 1.000000000000000000, 1.224646799147353207E-16 ) ) ;
#45 = EDGE_LOOP ( 'NONE', ( #181 ) ) ;
#46 = EDGE_LOOP ( 'NONE', ( #110 ) ) ;
#47 = CIRCLE ( 'NONE', #94, 4.500000000000002665 ) ;
#48 = EDGE_CURVE ( 'NONE', #199, #199, #101, .T. ) ;
#49 = PLANE ( 'NONE',  #4 ) ;
#50 = DIRECTION ( 'NONE',  ( -3.491481338843133355E-15, 1.224646799147353207E-16, -1.000000000000000000 ) ) ;
#51 = PERSON_AND_ORGANIZATION_ROLE ( 'design_supplier' ) ;
#52 = CLOSED_SHELL ( 'NONE', ( #71, #10, #55, #41 ) ) ;
#53 = COORDINATED_UNIVERSAL_TIME_OFFSET ( 1, 0, .AHEAD. ) ;
#54 = AXIS2_PLACEMENT_3D ( 'NONE', #108, #166, #26 ) ;
#55 = ADVANCED_FACE ( 'NONE', ( #7, #106 ), #6, .T. ) ;
#56 = FACE_OUTER_BOUND ( 'NONE', #45, .T. ) ;
#57 = CYLINDRICAL_SURFACE ( 'NONE', #54, 5.000000000000000000 ) ;
#58 = DIRECTION ( 'NONE',  ( 4.275831445896958607E-31, 1.000000000000000000, 1.224646799147353207E-16 ) ) ;
#59 = EDGE_LOOP ( 'NONE', ( #124 ) ) ;
#60 = DIRECTION ( 'NONE',  ( 3.491481338843133355E-15, -1.224646799147353207E-16, 1.000000000000000000 ) ) ;
#61 = AXIS2_PLACEMENT_3D ( 'NONE', #75, #50, #58 ) ;
#62 = APPLICATION_CONTEXT ( 'configuration controlled 3d designs of mechanical parts and assemblies' ) ;
#63 = ADVANCED_FACE ( 'NONE', ( #9, #195 ), #57, .T. ) ;
#64 = APPLICATION_PROTOCOL_DEFINITION ( 'international standard', 'config_control_design', 1994, #155 ) ;
#65 = AXIS2_PLACEMENT_3D ( 'NONE', #17, #139, #98 ) ;
#66 = PERSON_AND_ORGANIZATION ( #23, #24 ) ;
#67 = CALENDAR_DATE ( 2021, 9, 11 ) ;
#68 = PERSON_AND_ORGANIZATION_ROLE ( 'classification_officer' ) ;
#69 = DIRECTION ( 'NONE',  ( 3.491481338843133355E-15, -1.224646799147353207E-16, 1.000000000000000000 ) ) ;
#70 = APPROVAL_ROLE ( '' ) ;
#71 = ADVANCED_FACE ( 'NONE', ( #186 ), #49, .F. ) ;
#72 = DIRECTION ( 'NONE',  ( 0.0000000000000000000, 1.000000000000000000, 0.0000000000000000000 ) ) ;
#73 = DIRECTION ( 'NONE',  ( -3.491481338843133355E-15, 1.224646799147353207E-16, -1.000000000000000000 ) ) ;
#74 = ORIENTED_EDGE ( 'NONE', *, *, #123, .T. ) ;
#75 = CARTESIAN_POINT ( 'NONE',  ( -1.068957861474239564E-30, 3.749399456654644020E-32, -3.061616997868383141E-16 ) ) ;
#76 = DIRECTION ( 'NONE',  ( -3.491481338843133355E-15, 1.224646799147353207E-16, -1.000000000000000000 ) ) ;
#77 = CARTESIAN_POINT ( 'NONE',  ( 3.491481338843133355E-13, 4.499999999999990230, 100.0000000000000000 ) ) ;
#78 = CARTESIAN_POINT ( 'NONE',  ( 0.0000000000000000000, 0.0000000000000000000, 0.0000000000000000000 ) ) ;
#79 = CC_DESIGN_PERSON_AND_ORGANIZATION_ASSIGNMENT ( #37, #51, ( #84 ) ) ;
#80 = CC_DESIGN_APPROVAL ( #158, ( #84 ) ) ;
#81 = MANIFOLD_SOLID_BREP ( 'Corps-Déplacer/Copier1[1]', #52 ) ;
#82 = FACE_OUTER_BOUND ( 'NONE', #153, .T. ) ;
#83 = PERSON_AND_ORGANIZATION_ROLE ( 'design_owner' ) ;
#84 = PRODUCT_DEFINITION_FORMATION_WITH_SPECIFIED_SOURCE ( 'ANY', '', #133, .NOT_KNOWN. ) ;
#85 = CC_DESIGN_PERSON_AND_ORGANIZATION_ASSIGNMENT ( #176, #3, ( #190 ) ) ;
#86 = DATE_AND_TIME ( #135, #38 ) ;
#87 = LOCAL_TIME ( 10, 6, 47.00000000000000000, #145 ) ;
#88 = SHAPE_DEFINITION_REPRESENTATION ( #36, #40 ) ;
#89 = AXIS2_PLACEMENT_3D ( 'NONE', #91, #73, #152 ) ;
#90 = DIRECTION ( 'NONE',  ( 4.275831445896958607E-31, 1.000000000000000000, 1.224646799147353207E-16 ) ) ;
#91 = CARTESIAN_POINT ( 'NONE',  ( 3.474023932148917752E-13, -1.218523565151616460E-14, 99.50000000000000000 ) ) ;
#92 = CARTESIAN_POINT ( 'NONE',  ( 3.491481338843133355E-13, 3.374459510989163196E-32, 100.0000000000000000 ) ) ;
#93 = DIRECTION ( 'NONE',  ( -3.491481338843133355E-15, 1.224646799147353207E-16, -1.000000000000000000 ) ) ;
#94 = AXIS2_PLACEMENT_3D ( 'NONE', #15, #96, #156 ) ;
#95 = DIRECTION ( 'NONE',  ( -3.491481338843133355E-15, 1.224646799147353207E-16, -1.000000000000000000 ) ) ;
#96 = DIRECTION ( 'NONE',  ( -3.491481338843133355E-15, 1.224646799147353207E-16, -1.000000000000000000 ) ) ;
#97 = ORIENTED_EDGE ( 'NONE', *, *, #150, .F. ) ;
#98 = DIRECTION ( 'NONE',  ( 4.275831445896958607E-31, 1.000000000000000000, 1.224646799147353207E-16 ) ) ;
#99 = CARTESIAN_POINT ( 'NONE',  ( 3.474023932148917752E-13, -1.218523565151616460E-14, 99.50000000000000000 ) ) ;
#100 = APPROVAL_ROLE ( '' ) ;
#101 = CIRCLE ( 'NONE', #14, 5.000000000000000000 ) ;
#102 = COORDINATED_UNIVERSAL_TIME_OFFSET ( 1, 0, .AHEAD. ) ;
#103 = ADVANCED_FACE ( 'NONE', ( #82 ), #1, .T. ) ;
#104 = DATE_AND_TIME ( #19, #193 ) ;
#105 = AXIS2_PLACEMENT_3D ( 'NONE', #78, #95, #44 ) ;
#106 = FACE_OUTER_BOUND ( 'NONE', #170, .T. ) ;
#107 = APPROVAL ( #34, 'UNSPECIFIED' ) ;
#108 = CARTESIAN_POINT ( 'NONE',  ( 0.0000000000000000000, 0.0000000000000000000, 0.0000000000000000000 ) ) ;
#109 = VERTEX_POINT ( 'NONE', #27 ) ;
#110 = ORIENTED_EDGE ( 'NONE', *, *, #123, .F. ) ;
#111 =( NAMED_UNIT ( * ) SI_UNIT ( $, .STERADIAN. ) SOLID_ANGLE_UNIT ( ) );
#112 = LOCAL_TIME ( 10, 6, 47.00000000000000000, #177 ) ;
#113 = FACE_OUTER_BOUND ( 'NONE', #42, .T. ) ;
#114 = DESIGN_CONTEXT ( 'detailed design', #62, 'design' ) ;
#115 = CARTESIAN_POINT ( 'NONE',  ( 1.396592535537253342E-13, -4.898587196589413026E-15, 40.00000000000000000 ) ) ;
#116 = PERSON_AND_ORGANIZATION ( #23, #24 ) ;
#117 = APPROVAL_STATUS ( 'not_yet_approved' ) ;
#118 =( GEOMETRIC_REPRESENTATION_CONTEXT ( 3 ) GLOBAL_UNCERTAINTY_ASSIGNED_CONTEXT ( ( #128 ) ) GLOBAL_UNIT_ASSIGNED_CONTEXT ( ( #126, #183, #111 ) ) REPRESENTATION_CONTEXT ( 'NONE', 'WORKASPACE' ) );
#119 = EDGE_CURVE ( 'NONE', #33, #33, #47, .T. ) ;
#120 = CALENDAR_DATE ( 2021, 9, 11 ) ;
#121 = PERSON_AND_ORGANIZATION ( #23, #24 ) ;
#122 = DATE_TIME_ROLE ( 'classification_date' ) ;
#123 = EDGE_CURVE ( 'NONE', #109, #109, #160, .T. ) ;
#124 = ORIENTED_EDGE ( 'NONE', *, *, #48, .T. ) ;
#125 = EDGE_LOOP ( 'NONE', ( #180 ) ) ;
#126 =( LENGTH_UNIT ( ) NAMED_UNIT ( * ) SI_UNIT ( .MILLI., .METRE. ) );
#127 = CARTESIAN_POINT ( 'NONE',  ( 1.396592535537253342E-13, -4.898587196589413026E-15, 40.00000000000000000 ) ) ;
#128 = UNCERTAINTY_MEASURE_WITH_UNIT (LENGTH_MEASURE( 1.000000000000000082E-05 ), #126, 'distance_accuracy_value', 'NONE');
#129 = DIRECTION ( 'NONE',  ( 0.0000000000000000000, 1.000000000000000000, 0.0000000000000000000 ) ) ;
#130 = DATE_AND_TIME ( #67, #87 ) ;
#131 = PERSON_AND_ORGANIZATION_ROLE ( 'creator' ) ;
#132 = APPROVAL_PERSON_ORGANIZATION ( #161, #163, #70 ) ;
#133 = PRODUCT ( '44761', '44761', '', ( #16 ) ) ;
#134 = SECURITY_CLASSIFICATION_LEVEL ( 'unclassified' ) ;
#135 = CALENDAR_DATE ( 2021, 9, 11 ) ;
#136 = EDGE_LOOP ( 'NONE', ( #11 ) ) ;
#137 = PLANE ( 'NONE',  #149 ) ;
#138 = CARTESIAN_POINT ( 'NONE',  ( 1.396592535537253342E-13, 4.999999999999994671, 40.00000000000000000 ) ) ;
#139 = DIRECTION ( 'NONE',  ( -3.491481338843133355E-15, 1.224646799147353207E-16, -1.000000000000000000 ) ) ;
#140 = FACE_OUTER_BOUND ( 'NONE', #157, .T. ) ;
#141 = APPROVAL_PERSON_ORGANIZATION ( #162, #158, #191 ) ;
#142 = EDGE_CURVE ( 'NONE', #171, #171, #184, .T. ) ;
#143 = APPLICATION_PROTOCOL_DEFINITION ( 'international standard', 'config_control_design', 1994, #62 ) ;
#144 = CARTESIAN_POINT ( 'NONE',  ( 1.396592535537253342E-13, 3.749399456654637451E-32, 40.00000000000000000 ) ) ;
#145 = COORDINATED_UNIVERSAL_TIME_OFFSET ( 1, 0, .AHEAD. ) ;
#146 = MANIFOLD_SOLID_BREP ( 'Corps-Déplacer/Copier1[2]', #185 ) ;
#147 = DATE_TIME_ROLE ( 'creation_date' ) ;
#148 = APPROVAL_PERSON_ORGANIZATION ( #116, #107, #100 ) ;
#149 = AXIS2_PLACEMENT_3D ( 'NONE', #201, #60, #13 ) ;
#150 = EDGE_CURVE ( 'NONE', #198, #198, #202, .T. ) ;
#151 = DIRECTION ( 'NONE',  ( -3.491481338843133355E-15, 1.224646799147353207E-16, -1.000000000000000000 ) ) ;
#152 = DIRECTION ( 'NONE',  ( 0.0000000000000000000, 1.000000000000000000, 0.0000000000000000000 ) ) ;
#153 = EDGE_LOOP ( 'NONE', ( #74 ) ) ;
#154 = CARTESIAN_POINT ( 'NONE',  ( 1.396592535537253342E-13, 4.999999999999994671, 40.00000000000000000 ) ) ;
#155 = APPLICATION_CONTEXT ( 'configuration controlled 3d designs of mechanical parts and assemblies' ) ;
#156 = DIRECTION ( 'NONE',  ( 0.0000000000000000000, 1.000000000000000000, 0.0000000000000000000 ) ) ;
#157 = EDGE_LOOP ( 'NONE', ( #29 ) ) ;
#158 = APPROVAL ( #117, 'UNSPECIFIED' ) ;
#159 = DIRECTION ( 'NONE',  ( 0.0000000000000000000, 0.0000000000000000000, 1.000000000000000000 ) ) ;
#160 = CIRCLE ( 'NONE', #65, 5.000000000000000000 ) ;
#161 = PERSON_AND_ORGANIZATION ( #23, #24 ) ;
#162 = PERSON_AND_ORGANIZATION ( #23, #24 ) ;
#163 = APPROVAL ( #35, 'UNSPECIFIED' ) ;
#164 = LOCAL_TIME ( 10, 6, 47.00000000000000000, #53 ) ;
#165 = FACE_OUTER_BOUND ( 'NONE', #168, .T. ) ;
#166 = DIRECTION ( 'NONE',  ( -3.491481338843133355E-15, 1.224646799147353207E-16, -1.000000000000000000 ) ) ;
#167 = DIRECTION ( 'NONE',  ( -3.491481338843133355E-15, 1.224646799147353207E-16, -1.000000000000000000 ) ) ;
#168 = EDGE_LOOP ( 'NONE', ( #182 ) ) ;
#169 = CC_DESIGN_APPROVAL ( #107, ( #190 ) ) ;
#170 = EDGE_LOOP ( 'NONE', ( #97 ) ) ;
#171 = VERTEX_POINT ( 'NONE', #154 ) ;
#172 = CC_DESIGN_DATE_AND_TIME_ASSIGNMENT ( #104, #122, ( #20 ) ) ;
#173 = AXIS2_PLACEMENT_3D ( 'NONE', #174, #159, #203 ) ;
#174 = CARTESIAN_POINT ( 'NONE',  ( 0.0000000000000000000, 0.0000000000000000000, 0.0000000000000000000 ) ) ;
#175 = AXIS2_PLACEMENT_3D ( 'NONE', #115, #93, #30 ) ;
#176 = PERSON_AND_ORGANIZATION ( #23, #24 ) ;
#177 = COORDINATED_UNIVERSAL_TIME_OFFSET ( 1, 0, .AHEAD. ) ;
#178 = CC_DESIGN_DATE_AND_TIME_ASSIGNMENT ( #86, #147, ( #190 ) ) ;
#179 = DATE_AND_TIME ( #22, #112 ) ;
#180 = ORIENTED_EDGE ( 'NONE', *, *, #119, .T. ) ;
#181 = ORIENTED_EDGE ( 'NONE', *, *, #119, .F. ) ;
#182 = ORIENTED_EDGE ( 'NONE', *, *, #48, .F. ) ;
#183 =( NAMED_UNIT ( * ) PLANE_ANGLE_UNIT ( ) SI_UNIT ( $, .RADIAN. ) );
#184 = CIRCLE ( 'NONE', #175, 5.000000000000000000 ) ;
#185 = CLOSED_SHELL ( 'NONE', ( #103, #63, #25 ) ) ;
#186 = FACE_OUTER_BOUND ( 'NONE', #59, .T. ) ;
#187 = APPROVAL_DATE_TIME ( #130, #107 ) ;
#188 = AXIS2_PLACEMENT_3D ( 'NONE', #92, #76, #90 ) ;
#189 = PERSON_AND_ORGANIZATION ( #23, #24 ) ;
#190 = PRODUCT_DEFINITION ( 'UNKNOWN', '', #84, #114 ) ;
#191 = APPROVAL_ROLE ( '' ) ;
#192 = DATE_AND_TIME ( #120, #164 ) ;
#193 = LOCAL_TIME ( 10, 6, 47.00000000000000000, #21 ) ;
#194 = CYLINDRICAL_SURFACE ( 'NONE', #105, 5.000000000000000888 ) ;
#195 = FACE_OUTER_BOUND ( 'NONE', #46, .T. ) ;
#196 = CC_DESIGN_APPROVAL ( #163, ( #20 ) ) ;
#197 = PLANE ( 'NONE',  #188 ) ;
#198 = VERTEX_POINT ( 'NONE', #12 ) ;
#199 = VERTEX_POINT ( 'NONE', #138 ) ;
#200 = CC_DESIGN_PERSON_AND_ORGANIZATION_ASSIGNMENT ( #121, #131, ( #84 ) ) ;
#201 = CARTESIAN_POINT ( 'NONE',  ( 1.396592535537253342E-13, 3.749399456654637451E-32, 40.00000000000000000 ) ) ;
#202 = CIRCLE ( 'NONE', #31, 5.000000000000002665 ) ;
#203 = DIRECTION ( 'NONE',  ( 1.000000000000000000, 0.0000000000000000000, 0.0000000000000000000 ) ) ;
ENDSEC;
END-ISO-10303-21;
