ISO-10303-21;
HEADER;
FILE_DESCRIPTION (( 'STEP AP203' ),
    '1' );
FILE_NAME ('44760.step',
    '2021-11-09T09:06:47',
    ( '' ),
    ( '' ),
    'SwSTEP 2.0',
    'SolidWorks 2019',
    '' );
FILE_SCHEMA (( 'CONFIG_CONTROL_DESIGN' ));
ENDSEC;

DATA;
#1 = CARTESIAN_POINT ( 'NONE',  ( 0.0000000000000000000, 0.0000000000000000000, 0.0000000000000000000 ) ) ;
#2 = EDGE_LOOP ( 'NONE', ( #111 ) ) ;
#3 = CARTESIAN_POINT ( 'NONE',  ( -1.710332578358783092E-30, 5.999039130647430431E-32, -4.898587196589412829E-16 ) ) ;
#4 = EDGE_LOOP ( 'NONE', ( #23 ) ) ;
#5 = DIRECTION ( 'NONE',  ( -3.491481338843133355E-15, 1.224646799147353207E-16, -1.000000000000000000 ) ) ;
#6 = FACE_OUTER_BOUND ( 'NONE', #190, .T. ) ;
#7 = DIRECTION ( 'NONE',  ( 0.0000000000000000000, 1.000000000000000000, 0.0000000000000000000 ) ) ;
#8 = ORIENTED_EDGE ( 'NONE', *, *, #15, .F. ) ;
#9 = APPROVAL ( #129, 'UNSPECIFIED' ) ;
#10 = UNCERTAINTY_MEASURE_WITH_UNIT (LENGTH_MEASURE( 1.000000000000000082E-05 ), #81, 'distance_accuracy_value', 'NONE');
#11 = APPROVAL_STATUS ( 'not_yet_approved' ) ;
#12 = MECHANICAL_CONTEXT ( 'NONE', #134, 'mechanical' ) ;
#13 = PERSON_AND_ORGANIZATION ( #34, #118 ) ;
#14 = LOCAL_TIME ( 10, 6, 47.00000000000000000, #30 ) ;
#15 = EDGE_CURVE ( 'NONE', #71, #71, #41, .T. ) ;
#16 = ORIENTED_EDGE ( 'NONE', *, *, #69, .F. ) ;
#17 = CC_DESIGN_PERSON_AND_ORGANIZATION_ASSIGNMENT ( #150, #149, ( #54 ) ) ;
#18 = CARTESIAN_POINT ( 'NONE',  ( -8.551662891793915461E-31, 2.999519565323715216E-32, -2.449293598294706414E-16 ) ) ;
#19 = DIRECTION ( 'NONE',  ( 0.0000000000000000000, 1.000000000000000000, 0.0000000000000000000 ) ) ;
#20 = MANIFOLD_SOLID_BREP ( 'Corps-Déplacer/Copier1[2]', #28 ) ;
#21 = MANIFOLD_SOLID_BREP ( 'Corps-Déplacer/Copier1[1]', #139 ) ;
#22 = DIRECTION ( 'NONE',  ( 0.0000000000000000000, 1.000000000000000000, 0.0000000000000000000 ) ) ;
#23 = ORIENTED_EDGE ( 'NONE', *, *, #153, .T. ) ;
#24 = DESIGN_CONTEXT ( 'detailed design', #182, 'design' ) ;
#25 = COORDINATED_UNIVERSAL_TIME_OFFSET ( 1, 0, .AHEAD. ) ;
#26 = AXIS2_PLACEMENT_3D ( 'NONE', #32, #92, #7 ) ;
#27 = LOCAL_TIME ( 10, 6, 47.00000000000000000, #25 ) ;
#28 = CLOSED_SHELL ( 'NONE', ( #168, #124, #181 ) ) ;
#29 = AXIS2_PLACEMENT_3D ( 'NONE', #110, #89, #22 ) ;
#30 = COORDINATED_UNIVERSAL_TIME_OFFSET ( 1, 0, .AHEAD. ) ;
#31 = LOCAL_TIME ( 10, 6, 47.00000000000000000, #179 ) ;
#32 = CARTESIAN_POINT ( 'NONE',  ( 3.491481338843133355E-13, -1.224646799147353217E-14, 100.0000000000000000 ) ) ;
#33 = FACE_BOUND ( 'NONE', #108, .T. ) ;
#34 = PERSON ( 'UNSPECIFIED', 'UNSPECIFIED', 'UNSPECIFIED', ('UNSPECIFIED'), ('UNSPECIFIED'), ('UNSPECIFIED') ) ;
#35 = DIRECTION ( 'NONE',  ( 4.275831445896958607E-31, 1.000000000000000000, 1.224646799147353207E-16 ) ) ;
#36 = PERSON_AND_ORGANIZATION_ROLE ( 'creator' ) ;
#37 = PERSON_AND_ORGANIZATION ( #34, #118 ) ;
#38 = APPLICATION_PROTOCOL_DEFINITION ( 'international standard', 'config_control_design', 1994, #182 ) ;
#39 = CARTESIAN_POINT ( 'NONE',  ( 3.491481338843133355E-13, 3.499999999999989342, 100.0000000000000000 ) ) ;
#40 = EDGE_CURVE ( 'NONE', #57, #57, #164, .T. ) ;
#41 = CIRCLE ( 'NONE', #53, 4.000000000000000888 ) ;
#42 = CALENDAR_DATE ( 2021, 9, 11 ) ;
#43 = AXIS2_PLACEMENT_3D ( 'NONE', #83, #180, #112 ) ;
#44 = DIRECTION ( 'NONE',  ( -4.275831445896958607E-31, -1.000000000000000000, -1.224646799147353207E-16 ) ) ;
#45 = ORIENTED_EDGE ( 'NONE', *, *, #153, .F. ) ;
#46 = LOCAL_TIME ( 10, 6, 47.00000000000000000, #131 ) ;
#47 = PRODUCT_RELATED_PRODUCT_CATEGORY ( 'detail', '', ( #82 ) ) ;
#48 = DIRECTION ( 'NONE',  ( -3.491481338843133355E-15, 1.224646799147353207E-16, -1.000000000000000000 ) ) ;
#49 = EDGE_LOOP ( 'NONE', ( #67 ) ) ;
#50 = DIRECTION ( 'NONE',  ( -4.275831445896958607E-31, -1.000000000000000000, -1.224646799147353207E-16 ) ) ;
#51 =( NAMED_UNIT ( * ) PLANE_ANGLE_UNIT ( ) SI_UNIT ( $, .RADIAN. ) );
#52 = CC_DESIGN_PERSON_AND_ORGANIZATION_ASSIGNMENT ( #97, #36, ( #174 ) ) ;
#53 = AXIS2_PLACEMENT_3D ( 'NONE', #171, #188, #167 ) ;
#54 = PRODUCT_DEFINITION_FORMATION_WITH_SPECIFIED_SOURCE ( 'ANY', '', #82, .NOT_KNOWN. ) ;
#55 = APPLICATION_PROTOCOL_DEFINITION ( 'international standard', 'config_control_design', 1994, #134 ) ;
#56 = VERTEX_POINT ( 'NONE', #39 ) ;
#57 = VERTEX_POINT ( 'NONE', #85 ) ;
#58 = PERSON_AND_ORGANIZATION ( #34, #118 ) ;
#59 = AXIS2_PLACEMENT_3D ( 'NONE', #63, #48, #127 ) ;
#60 = FACE_OUTER_BOUND ( 'NONE', #49, .T. ) ;
#61 = DIRECTION ( 'NONE',  ( -3.491481338843133355E-15, 1.224646799147353207E-16, -1.000000000000000000 ) ) ;
#62 = FACE_OUTER_BOUND ( 'NONE', #4, .T. ) ;
#63 = CARTESIAN_POINT ( 'NONE',  ( 0.0000000000000000000, 0.0000000000000000000, 0.0000000000000000000 ) ) ;
#64 = EDGE_LOOP ( 'NONE', ( #45 ) ) ;
#65 = AXIS2_PLACEMENT_3D ( 'NONE', #122, #77, #125 ) ;
#66 = CARTESIAN_POINT ( 'NONE',  ( 1.396592535537253342E-13, 3.999999999999995559, 40.00000000000000000 ) ) ;
#67 = ORIENTED_EDGE ( 'NONE', *, *, #178, .F. ) ;
#68 = DIRECTION ( 'NONE',  ( 3.491481338843133355E-15, -1.224646799147353207E-16, 1.000000000000000000 ) ) ;
#69 = EDGE_CURVE ( 'NONE', #56, #56, #202, .T. ) ;
#70 = CC_DESIGN_APPROVAL ( #197, ( #54 ) ) ;
#71 = VERTEX_POINT ( 'NONE', #148 ) ;
#72 = CIRCLE ( 'NONE', #185, 4.000000000000000000 ) ;
#73 = APPROVAL ( #101, 'UNSPECIFIED' ) ;
#74 = LOCAL_TIME ( 10, 6, 47.00000000000000000, #133 ) ;
#75 = EDGE_LOOP ( 'NONE', ( #16 ) ) ;
#76 = DIRECTION ( 'NONE',  ( -3.491481338843133355E-15, 1.224646799147353207E-16, -1.000000000000000000 ) ) ;
#77 = DIRECTION ( 'NONE',  ( -3.491481338843133355E-15, 1.224646799147353207E-16, -1.000000000000000000 ) ) ;
#78 = DIRECTION ( 'NONE',  ( -3.491481338843133355E-15, 1.224646799147353207E-16, -1.000000000000000000 ) ) ;
#79 = FACE_OUTER_BOUND ( 'NONE', #128, .T. ) ;
#80 = ORIENTED_EDGE ( 'NONE', *, *, #69, .T. ) ;
#81 =( LENGTH_UNIT ( ) NAMED_UNIT ( * ) SI_UNIT ( .MILLI., .METRE. ) );
#82 = PRODUCT ( '44760', '44760', '', ( #12 ) ) ;
#83 = CARTESIAN_POINT ( 'NONE',  ( 0.0000000000000000000, 0.0000000000000000000, 0.0000000000000000000 ) ) ;
#84 = AXIS2_PLACEMENT_3D ( 'NONE', #1, #78, #143 ) ;
#85 = CARTESIAN_POINT ( 'NONE',  ( 3.474023932148917752E-13, 3.999999999999976019, 99.50000000000000000 ) ) ;
#86 = DATE_AND_TIME ( #198, #46 ) ;
#87 = CC_DESIGN_PERSON_AND_ORGANIZATION_ASSIGNMENT ( #37, #100, ( #82 ) ) ;
#88 = DIRECTION ( 'NONE',  ( 3.491481338843133355E-15, -1.224646799147353207E-16, 1.000000000000000000 ) ) ;
#89 = DIRECTION ( 'NONE',  ( -3.491481338843133355E-15, 1.224646799147353207E-16, -1.000000000000000000 ) ) ;
#90 = ORIENTED_EDGE ( 'NONE', *, *, #15, .T. ) ;
#91 = ADVANCED_FACE ( 'NONE', ( #33, #157 ), #161, .T. ) ;
#92 = DIRECTION ( 'NONE',  ( -3.491481338843133355E-15, 1.224646799147353207E-16, -1.000000000000000000 ) ) ;
#93 = CARTESIAN_POINT ( 'NONE',  ( 3.474023932148917752E-13, -1.218523565151616460E-14, 99.50000000000000000 ) ) ;
#94 = PERSON_AND_ORGANIZATION ( #34, #118 ) ;
#95 = APPROVAL_PERSON_ORGANIZATION ( #13, #197, #162 ) ;
#96 = CARTESIAN_POINT ( 'NONE',  ( 1.396592535537253342E-13, 2.999519565323708647E-32, 40.00000000000000000 ) ) ;
#97 = PERSON_AND_ORGANIZATION ( #34, #118 ) ;
#98 = VERTEX_POINT ( 'NONE', #159 ) ;
#99 = CC_DESIGN_SECURITY_CLASSIFICATION ( #173, ( #54 ) ) ;
#100 = PERSON_AND_ORGANIZATION_ROLE ( 'design_owner' ) ;
#101 = APPROVAL_STATUS ( 'not_yet_approved' ) ;
#102 = ADVANCED_FACE ( 'NONE', ( #62 ), #192, .F. ) ;
#103 = PERSON_AND_ORGANIZATION_ROLE ( 'creator' ) ;
#104 = ADVANCED_FACE ( 'NONE', ( #170 ), #142, .F. ) ;
#105 = AXIS2_PLACEMENT_3D ( 'NONE', #96, #68, #50 ) ;
#106 = FACE_OUTER_BOUND ( 'NONE', #64, .T. ) ;
#107 = CC_DESIGN_DATE_AND_TIME_ASSIGNMENT ( #201, #119, ( #173 ) ) ;
#108 = EDGE_LOOP ( 'NONE', ( #80 ) ) ;
#109 =( GEOMETRIC_REPRESENTATION_CONTEXT ( 3 ) GLOBAL_UNCERTAINTY_ASSIGNED_CONTEXT ( ( #10 ) ) GLOBAL_UNIT_ASSIGNED_CONTEXT ( ( #81, #51, #114 ) ) REPRESENTATION_CONTEXT ( 'NONE', 'WORKASPACE' ) );
#110 = CARTESIAN_POINT ( 'NONE',  ( 1.396592535537253342E-13, -4.898587196589413026E-15, 40.00000000000000000 ) ) ;
#111 = ORIENTED_EDGE ( 'NONE', *, *, #40, .F. ) ;
#112 = DIRECTION ( 'NONE',  ( 1.000000000000000000, 0.0000000000000000000, 0.0000000000000000000 ) ) ;
#113 = APPROVAL_PERSON_ORGANIZATION ( #160, #9, #193 ) ;
#114 =( NAMED_UNIT ( * ) SI_UNIT ( $, .STERADIAN. ) SOLID_ANGLE_UNIT ( ) );
#115 = CC_DESIGN_DATE_AND_TIME_ASSIGNMENT ( #116, #147, ( #174 ) ) ;
#116 = DATE_AND_TIME ( #145, #27 ) ;
#117 = VERTEX_POINT ( 'NONE', #66 ) ;
#118 = ORGANIZATION ( 'UNSPECIFIED', 'UNSPECIFIED', '' ) ;
#119 = DATE_TIME_ROLE ( 'classification_date' ) ;
#120 = APPROVAL_PERSON_ORGANIZATION ( #163, #73, #186 ) ;
#121 = CALENDAR_DATE ( 2021, 9, 11 ) ;
#122 = CARTESIAN_POINT ( 'NONE',  ( 3.474023932148917752E-13, -1.218523565151616460E-14, 99.50000000000000000 ) ) ;
#123 = CYLINDRICAL_SURFACE ( 'NONE', #84, 4.000000000000000000 ) ;
#124 = ADVANCED_FACE ( 'NONE', ( #126, #60 ), #123, .T. ) ;
#125 = DIRECTION ( 'NONE',  ( 0.0000000000000000000, 1.000000000000000000, 0.0000000000000000000 ) ) ;
#126 = FACE_OUTER_BOUND ( 'NONE', #144, .T. ) ;
#127 = DIRECTION ( 'NONE',  ( 4.275831445896959482E-31, 1.000000000000000000, 1.224646799147353454E-16 ) ) ;
#128 = EDGE_LOOP ( 'NONE', ( #141 ) ) ;
#129 = APPROVAL_STATUS ( 'not_yet_approved' ) ;
#130 = PRODUCT_DEFINITION_SHAPE ( 'NONE', 'NONE',  #174 ) ;
#131 = COORDINATED_UNIVERSAL_TIME_OFFSET ( 1, 0, .AHEAD. ) ;
#132 = PERSON_AND_ORGANIZATION_ROLE ( 'classification_officer' ) ;
#133 = COORDINATED_UNIVERSAL_TIME_OFFSET ( 1, 0, .AHEAD. ) ;
#134 = APPLICATION_CONTEXT ( 'configuration controlled 3d designs of mechanical parts and assemblies' ) ;
#135 = CC_DESIGN_PERSON_AND_ORGANIZATION_ASSIGNMENT ( #94, #103, ( #54 ) ) ;
#136 = AXIS2_PLACEMENT_3D ( 'NONE', #138, #88, #44 ) ;
#137 = CIRCLE ( 'NONE', #29, 4.000000000000000888 ) ;
#138 = CARTESIAN_POINT ( 'NONE',  ( 1.396592535537253342E-13, 2.999519565323708647E-32, 40.00000000000000000 ) ) ;
#139 = CLOSED_SHELL ( 'NONE', ( #102, #151, #91, #104 ) ) ;
#140 = DIRECTION ( 'NONE',  ( 4.275831445896958607E-31, 1.000000000000000000, 1.224646799147353207E-16 ) ) ;
#141 = ORIENTED_EDGE ( 'NONE', *, *, #178, .T. ) ;
#142 = PLANE ( 'NONE',  #187 ) ;
#143 = DIRECTION ( 'NONE',  ( 4.275831445896958607E-31, 1.000000000000000000, 1.224646799147353207E-16 ) ) ;
#144 = EDGE_LOOP ( 'NONE', ( #90 ) ) ;
#145 = CALENDAR_DATE ( 2021, 9, 11 ) ;
#146 = PLANE ( 'NONE',  #105 ) ;
#147 = DATE_TIME_ROLE ( 'creation_date' ) ;
#148 = CARTESIAN_POINT ( 'NONE',  ( 1.396592535537253342E-13, 3.999999999999995559, 40.00000000000000000 ) ) ;
#149 = PERSON_AND_ORGANIZATION_ROLE ( 'design_supplier' ) ;
#150 = PERSON_AND_ORGANIZATION ( #34, #118 ) ;
#151 = ADVANCED_FACE ( 'NONE', ( #6, #106 ), #169, .T. ) ;
#152 = DIRECTION ( 'NONE',  ( -3.491481338843133355E-15, 1.224646799147353207E-16, -1.000000000000000000 ) ) ;
#153 = EDGE_CURVE ( 'NONE', #117, #117, #137, .T. ) ;
#154 = PLANE ( 'NONE',  #203 ) ;
#155 = CC_DESIGN_APPROVAL ( #9, ( #174 ) ) ;
#156 = DIRECTION ( 'NONE',  ( 4.275831445896958607E-31, 1.000000000000000000, 1.224646799147353207E-16 ) ) ;
#157 = FACE_OUTER_BOUND ( 'NONE', #2, .T. ) ;
#158 = FACE_OUTER_BOUND ( 'NONE', #175, .T. ) ;
#159 = CARTESIAN_POINT ( 'NONE',  ( 3.421138828918010427E-46, 4.000000000000000000, 0.0000000000000000000 ) ) ;
#160 = PERSON_AND_ORGANIZATION ( #34, #118 ) ;
#161 = CONICAL_SURFACE ( 'NONE', #65, 3.999999999999988010, 0.7853981633974344012 ) ;
#162 = APPROVAL_ROLE ( '' ) ;
#163 = PERSON_AND_ORGANIZATION ( #34, #118 ) ;
#164 = CIRCLE ( 'NONE', #172, 3.999999999999988010 ) ;
#165 = DATE_AND_TIME ( #121, #74 ) ;
#166 = SECURITY_CLASSIFICATION_LEVEL ( 'unclassified' ) ;
#167 = DIRECTION ( 'NONE',  ( 0.0000000000000000000, 1.000000000000000000, 0.0000000000000000000 ) ) ;
#168 = ADVANCED_FACE ( 'NONE', ( #79 ), #154, .T. ) ;
#169 = CYLINDRICAL_SURFACE ( 'NONE', #59, 3.999999999999994671 ) ;
#170 = FACE_OUTER_BOUND ( 'NONE', #75, .T. ) ;
#171 = CARTESIAN_POINT ( 'NONE',  ( 1.396592535537253342E-13, -4.898587196589413026E-15, 40.00000000000000000 ) ) ;
#172 = AXIS2_PLACEMENT_3D ( 'NONE', #93, #5, #19 ) ;
#173 = SECURITY_CLASSIFICATION ( '', '', #166 ) ;
#174 = PRODUCT_DEFINITION ( 'UNKNOWN', '', #54, #24 ) ;
#175 = EDGE_LOOP ( 'NONE', ( #8 ) ) ;
#176 = CALENDAR_DATE ( 2021, 9, 11 ) ;
#177 = DATE_AND_TIME ( #176, #31 ) ;
#178 = EDGE_CURVE ( 'NONE', #98, #98, #72, .T. ) ;
#179 = COORDINATED_UNIVERSAL_TIME_OFFSET ( 1, 0, .AHEAD. ) ;
#180 = DIRECTION ( 'NONE',  ( 0.0000000000000000000, 0.0000000000000000000, 1.000000000000000000 ) ) ;
#181 = ADVANCED_FACE ( 'NONE', ( #158 ), #146, .T. ) ;
#182 = APPLICATION_CONTEXT ( 'configuration controlled 3d designs of mechanical parts and assemblies' ) ;
#183 = SHAPE_DEFINITION_REPRESENTATION ( #130, #200 ) ;
#184 = CC_DESIGN_PERSON_AND_ORGANIZATION_ASSIGNMENT ( #58, #132, ( #173 ) ) ;
#185 = AXIS2_PLACEMENT_3D ( 'NONE', #3, #61, #35 ) ;
#186 = APPROVAL_ROLE ( '' ) ;
#187 = AXIS2_PLACEMENT_3D ( 'NONE', #189, #152, #156 ) ;
#188 = DIRECTION ( 'NONE',  ( -3.491481338843133355E-15, 1.224646799147353207E-16, -1.000000000000000000 ) ) ;
#189 = CARTESIAN_POINT ( 'NONE',  ( 3.491481338843133355E-13, 2.624579619658233297E-32, 100.0000000000000000 ) ) ;
#190 = EDGE_LOOP ( 'NONE', ( #194 ) ) ;
#191 = CC_DESIGN_APPROVAL ( #73, ( #173 ) ) ;
#192 = PLANE ( 'NONE',  #136 ) ;
#193 = APPROVAL_ROLE ( '' ) ;
#194 = ORIENTED_EDGE ( 'NONE', *, *, #40, .T. ) ;
#195 = APPROVAL_DATE_TIME ( #86, #197 ) ;
#196 = APPROVAL_DATE_TIME ( #177, #9 ) ;
#197 = APPROVAL ( #11, 'UNSPECIFIED' ) ;
#198 = CALENDAR_DATE ( 2021, 9, 11 ) ;
#199 = APPROVAL_DATE_TIME ( #165, #73 ) ;
#200 = ADVANCED_BREP_SHAPE_REPRESENTATION ( '44760', ( #21, #20, #43 ), #109 ) ;
#201 = DATE_AND_TIME ( #42, #14 ) ;
#202 = CIRCLE ( 'NONE', #26, 3.500000000000001332 ) ;
#203 = AXIS2_PLACEMENT_3D ( 'NONE', #18, #76, #140 ) ;
ENDSEC;
END-ISO-10303-21;
