ISO-10303-21;
HEADER;
FILE_DESCRIPTION (( 'STEP AP203' ),
    '1' );
FILE_NAME ('44759.step',
    '2021-11-09T09:06:46',
    ( '' ),
    ( '' ),
    'SwSTEP 2.0',
    'SolidWorks 2019',
    '' );
FILE_SCHEMA (( 'CONFIG_CONTROL_DESIGN' ));
ENDSEC;

DATA;
#1 = VERTEX_POINT ( 'NONE', #65 ) ;
#2 = CARTESIAN_POINT ( 'NONE',  ( 3.474023932148917752E-13, -1.218523565151616460E-14, 99.50000000000000000 ) ) ;
#3 = PLANE ( 'NONE',  #99 ) ;
#4 = PLANE ( 'NONE',  #95 ) ;
#5 = FACE_OUTER_BOUND ( 'NONE', #139, .T. ) ;
#6 = CALENDAR_DATE ( 2021, 9, 11 ) ;
#7 = COORDINATED_UNIVERSAL_TIME_OFFSET ( 1, 0, .AHEAD. ) ;
#8 = AXIS2_PLACEMENT_3D ( 'NONE', #179, #163, #37 ) ;
#9 = APPROVAL_DATE_TIME ( #89, #27 ) ;
#10 = APPROVAL_DATE_TIME ( #42, #189 ) ;
#11 = EDGE_LOOP ( 'NONE', ( #110 ) ) ;
#12 = PERSON_AND_ORGANIZATION ( #155, #20 ) ;
#13 = AXIS2_PLACEMENT_3D ( 'NONE', #127, #78, #202 ) ;
#14 = CARTESIAN_POINT ( 'NONE',  ( 0.0000000000000000000, 0.0000000000000000000, 0.0000000000000000000 ) ) ;
#15 = CC_DESIGN_DATE_AND_TIME_ASSIGNMENT ( #126, #182, ( #201 ) ) ;
#16 = VERTEX_POINT ( 'NONE', #83 ) ;
#17 = LOCAL_TIME ( 10, 6, 46.00000000000000000, #153 ) ;
#18 = CARTESIAN_POINT ( 'NONE',  ( -1.282749433769087757E-30, 4.499279347985572824E-32, -3.673940397442059868E-16 ) ) ;
#19 = ADVANCED_FACE ( 'NONE', ( #26, #91 ), #187, .T. ) ;
#20 = ORGANIZATION ( 'UNSPECIFIED', 'UNSPECIFIED', '' ) ;
#21 = PLANE ( 'NONE',  #177 ) ;
#22 = COORDINATED_UNIVERSAL_TIME_OFFSET ( 1, 0, .AHEAD. ) ;
#23 = CC_DESIGN_PERSON_AND_ORGANIZATION_ASSIGNMENT ( #12, #104, ( #201 ) ) ;
#24 = CALENDAR_DATE ( 2021, 9, 11 ) ;
#25 = PERSON_AND_ORGANIZATION ( #155, #20 ) ;
#26 = FACE_OUTER_BOUND ( 'NONE', #45, .T. ) ;
#27 = APPROVAL ( #173, 'UNSPECIFIED' ) ;
#28 = APPLICATION_PROTOCOL_DEFINITION ( 'international standard', 'config_control_design', 1994, #140 ) ;
#29 = ORIENTED_EDGE ( 'NONE', *, *, #97, .T. ) ;
#30 = DIRECTION ( 'NONE',  ( 0.0000000000000000000, 0.0000000000000000000, 1.000000000000000000 ) ) ;
#31 = PLANE ( 'NONE',  #13 ) ;
#32 = MANIFOLD_SOLID_BREP ( 'Corps-Déplacer/Copier1[2]', #136 ) ;
#33 = CC_DESIGN_APPROVAL ( #55, ( #180 ) ) ;
#34 = VERTEX_POINT ( 'NONE', #98 ) ;
#35 = AXIS2_PLACEMENT_3D ( 'NONE', #18, #54, #181 ) ;
#36 = CC_DESIGN_PERSON_AND_ORGANIZATION_ASSIGNMENT ( #41, #200, ( #94 ) ) ;
#37 = DIRECTION ( 'NONE',  ( 4.275831445896959482E-31, 1.000000000000000000, 1.224646799147353207E-16 ) ) ;
#38 = DIRECTION ( 'NONE',  ( -3.491481338843133355E-15, 1.224646799147353207E-16, -1.000000000000000000 ) ) ;
#39 = DIRECTION ( 'NONE',  ( -3.491481338843133355E-15, 1.224646799147353207E-16, -1.000000000000000000 ) ) ;
#40 = LOCAL_TIME ( 10, 6, 46.00000000000000000, #152 ) ;
#41 = PERSON_AND_ORGANIZATION ( #155, #20 ) ;
#42 = DATE_AND_TIME ( #24, #17 ) ;
#43 = EDGE_LOOP ( 'NONE', ( #146 ) ) ;
#44 = APPLICATION_PROTOCOL_DEFINITION ( 'international standard', 'config_control_design', 1994, #203 ) ;
#45 = EDGE_LOOP ( 'NONE', ( #29 ) ) ;
#46 = AXIS2_PLACEMENT_3D ( 'NONE', #14, #188, #93 ) ;
#47 = EDGE_CURVE ( 'NONE', #87, #87, #167, .T. ) ;
#48 = DATE_AND_TIME ( #6, #132 ) ;
#49 = ORIENTED_EDGE ( 'NONE', *, *, #97, .F. ) ;
#50 = CIRCLE ( 'NONE', #35, 3.000000000000000000 ) ;
#51 = VERTEX_POINT ( 'NONE', #176 ) ;
#52 = FACE_BOUND ( 'NONE', #194, .T. ) ;
#53 = CARTESIAN_POINT ( 'NONE',  ( 3.491481338843133355E-13, 1.874699728327304494E-32, 100.0000000000000000 ) ) ;
#54 = DIRECTION ( 'NONE',  ( -3.491481338843133355E-15, 1.224646799147353207E-16, -1.000000000000000000 ) ) ;
#55 = APPROVAL ( #109, 'UNSPECIFIED' ) ;
#56 = AXIS2_PLACEMENT_3D ( 'NONE', #67, #38, #85 ) ;
#57 = PERSON_AND_ORGANIZATION_ROLE ( 'design_supplier' ) ;
#58 = EDGE_LOOP ( 'NONE', ( #172 ) ) ;
#59 = PERSON_AND_ORGANIZATION ( #155, #20 ) ;
#60 =( GEOMETRIC_REPRESENTATION_CONTEXT ( 3 ) GLOBAL_UNCERTAINTY_ASSIGNED_CONTEXT ( ( #150 ) ) GLOBAL_UNIT_ASSIGNED_CONTEXT ( ( #108, #90, #198 ) ) REPRESENTATION_CONTEXT ( 'NONE', 'WORKASPACE' ) );
#61 = ORIENTED_EDGE ( 'NONE', *, *, #125, .F. ) ;
#62 = FACE_OUTER_BOUND ( 'NONE', #170, .T. ) ;
#63 = CC_DESIGN_PERSON_AND_ORGANIZATION_ASSIGNMENT ( #92, #72, ( #180 ) ) ;
#64 = CC_DESIGN_PERSON_AND_ORGANIZATION_ASSIGNMENT ( #196, #57, ( #160 ) ) ;
#65 = CARTESIAN_POINT ( 'NONE',  ( 0.0000000000000000000, 3.000000000000000000, 0.0000000000000000000 ) ) ;
#66 = CARTESIAN_POINT ( 'NONE',  ( 1.396592535537253342E-13, -4.898587196589413026E-15, 40.00000000000000000 ) ) ;
#67 = CARTESIAN_POINT ( 'NONE',  ( 3.491481338843133355E-13, -1.224646799147353217E-14, 100.0000000000000000 ) ) ;
#68 = CLOSED_SHELL ( 'NONE', ( #82, #19, #157, #175 ) ) ;
#69 = CONICAL_SURFACE ( 'NONE', #164, 3.000000000000000888, 0.7853981633974482790 ) ;
#70 = CC_DESIGN_PERSON_AND_ORGANIZATION_ASSIGNMENT ( #59, #186, ( #160 ) ) ;
#71 = DIRECTION ( 'NONE',  ( 1.000000000000000000, 0.0000000000000000000, 0.0000000000000000000 ) ) ;
#72 = PERSON_AND_ORGANIZATION_ROLE ( 'creator' ) ;
#73 = DESIGN_CONTEXT ( 'detailed design', #140, 'design' ) ;
#74 = ORIENTED_EDGE ( 'NONE', *, *, #137, .T. ) ;
#75 = DATE_TIME_ROLE ( 'creation_date' ) ;
#76 = SHAPE_DEFINITION_REPRESENTATION ( #80, #184 ) ;
#77 = CC_DESIGN_SECURITY_CLASSIFICATION ( #201, ( #160 ) ) ;
#78 = DIRECTION ( 'NONE',  ( -3.491481338843133355E-15, 1.224646799147353207E-16, -1.000000000000000000 ) ) ;
#79 = ADVANCED_FACE ( 'NONE', ( #62 ), #31, .T. ) ;
#80 = PRODUCT_DEFINITION_SHAPE ( 'NONE', 'NONE',  #180 ) ;
#81 = AXIS2_PLACEMENT_3D ( 'NONE', #2, #118, #159 ) ;
#82 = ADVANCED_FACE ( 'NONE', ( #100 ), #3, .F. ) ;
#83 = CARTESIAN_POINT ( 'NONE',  ( 3.474023932148917752E-13, 2.999999999999988898, 99.50000000000000000 ) ) ;
#84 = FACE_OUTER_BOUND ( 'NONE', #121, .T. ) ;
#85 = DIRECTION ( 'NONE',  ( 0.0000000000000000000, 1.000000000000000000, 0.0000000000000000000 ) ) ;
#86 = DIRECTION ( 'NONE',  ( -4.275831445896958607E-31, -1.000000000000000000, -1.224646799147353207E-16 ) ) ;
#87 = VERTEX_POINT ( 'NONE', #129 ) ;
#88 = APPROVAL_PERSON_ORGANIZATION ( #25, #189, #142 ) ;
#89 = DATE_AND_TIME ( #138, #144 ) ;
#90 =( NAMED_UNIT ( * ) PLANE_ANGLE_UNIT ( ) SI_UNIT ( $, .RADIAN. ) );
#91 = FACE_OUTER_BOUND ( 'NONE', #11, .T. ) ;
#92 = PERSON_AND_ORGANIZATION ( #155, #20 ) ;
#93 = DIRECTION ( 'NONE',  ( 4.275831445896959482E-31, 1.000000000000000000, 1.224646799147353207E-16 ) ) ;
#94 = PRODUCT ( '44759', '44759', '', ( #106 ) ) ;
#95 = AXIS2_PLACEMENT_3D ( 'NONE', #53, #39, #102 ) ;
#96 = MANIFOLD_SOLID_BREP ( 'Corps-Déplacer/Copier1[1]', #68 ) ;
#97 = EDGE_CURVE ( 'NONE', #16, #16, #122, .T. ) ;
#98 = CARTESIAN_POINT ( 'NONE',  ( 3.491481338843133355E-13, 2.499999999999988454, 100.0000000000000000 ) ) ;
#99 = AXIS2_PLACEMENT_3D ( 'NONE', #131, #117, #115 ) ;
#100 = FACE_OUTER_BOUND ( 'NONE', #124, .T. ) ;
#101 = CARTESIAN_POINT ( 'NONE',  ( 1.396592535537253342E-13, 2.249639673992779569E-32, 40.00000000000000000 ) ) ;
#102 = DIRECTION ( 'NONE',  ( 4.275831445896958607E-31, 1.000000000000000000, 1.224646799147353207E-16 ) ) ;
#103 = APPROVAL_ROLE ( '' ) ;
#104 = PERSON_AND_ORGANIZATION_ROLE ( 'classification_officer' ) ;
#105 = AXIS2_PLACEMENT_3D ( 'NONE', #120, #30, #71 ) ;
#106 = MECHANICAL_CONTEXT ( 'NONE', #203, 'mechanical' ) ;
#107 = ORIENTED_EDGE ( 'NONE', *, *, #125, .T. ) ;
#108 =( LENGTH_UNIT ( ) NAMED_UNIT ( * ) SI_UNIT ( .MILLI., .METRE. ) );
#109 = APPROVAL_STATUS ( 'not_yet_approved' ) ;
#110 = ORIENTED_EDGE ( 'NONE', *, *, #47, .F. ) ;
#111 = CC_DESIGN_DATE_AND_TIME_ASSIGNMENT ( #48, #75, ( #180 ) ) ;
#112 = DIRECTION ( 'NONE',  ( 0.0000000000000000000, 1.000000000000000000, 0.0000000000000000000 ) ) ;
#113 = APPROVAL_PERSON_ORGANIZATION ( #165, #27, #166 ) ;
#114 = EDGE_CURVE ( 'NONE', #1, #1, #50, .T. ) ;
#115 = DIRECTION ( 'NONE',  ( -4.275831445896958607E-31, -1.000000000000000000, -1.224646799147353207E-16 ) ) ;
#116 = CARTESIAN_POINT ( 'NONE',  ( 3.474023932148917752E-13, -1.218523565151616460E-14, 99.50000000000000000 ) ) ;
#117 = DIRECTION ( 'NONE',  ( 3.491481338843133355E-15, -1.224646799147353207E-16, 1.000000000000000000 ) ) ;
#118 = DIRECTION ( 'NONE',  ( -3.491481338843133355E-15, 1.224646799147353207E-16, -1.000000000000000000 ) ) ;
#119 = PRODUCT_RELATED_PRODUCT_CATEGORY ( 'detail', '', ( #94 ) ) ;
#120 = CARTESIAN_POINT ( 'NONE',  ( 0.0000000000000000000, 0.0000000000000000000, 0.0000000000000000000 ) ) ;
#121 = EDGE_LOOP ( 'NONE', ( #61 ) ) ;
#122 = CIRCLE ( 'NONE', #81, 3.000000000000000888 ) ;
#123 = DATE_AND_TIME ( #171, #141 ) ;
#124 = EDGE_LOOP ( 'NONE', ( #199 ) ) ;
#125 = EDGE_CURVE ( 'NONE', #51, #51, #151, .T. ) ;
#126 = DATE_AND_TIME ( #149, #40 ) ;
#127 = CARTESIAN_POINT ( 'NONE',  ( -6.413747168845438786E-31, 2.249639673992786412E-32, -1.836970198721029934E-16 ) ) ;
#128 = APPROVAL_PERSON_ORGANIZATION ( #169, #55, #103 ) ;
#129 = CARTESIAN_POINT ( 'NONE',  ( 1.396592535537253342E-13, 2.999999999999995115, 40.00000000000000000 ) ) ;
#130 = DIRECTION ( 'NONE',  ( -3.491481338843133355E-15, 1.224646799147353207E-16, -1.000000000000000000 ) ) ;
#131 = CARTESIAN_POINT ( 'NONE',  ( 1.396592535537253342E-13, 2.249639673992779569E-32, 40.00000000000000000 ) ) ;
#132 = LOCAL_TIME ( 10, 6, 46.00000000000000000, #22 ) ;
#133 = ORIENTED_EDGE ( 'NONE', *, *, #114, .T. ) ;
#134 = DIRECTION ( 'NONE',  ( -3.491481338843133355E-15, 1.224646799147353207E-16, -1.000000000000000000 ) ) ;
#135 = APPROVAL_STATUS ( 'not_yet_approved' ) ;
#136 = CLOSED_SHELL ( 'NONE', ( #79, #143, #158 ) ) ;
#137 = EDGE_CURVE ( 'NONE', #34, #34, #192, .T. ) ;
#138 = CALENDAR_DATE ( 2021, 9, 11 ) ;
#139 = EDGE_LOOP ( 'NONE', ( #49 ) ) ;
#140 = APPLICATION_CONTEXT ( 'configuration controlled 3d designs of mechanical parts and assemblies' ) ;
#141 = LOCAL_TIME ( 10, 6, 46.00000000000000000, #193 ) ;
#142 = APPROVAL_ROLE ( '' ) ;
#143 = ADVANCED_FACE ( 'NONE', ( #145, #161 ), #162, .T. ) ;
#144 = LOCAL_TIME ( 10, 6, 46.00000000000000000, #7 ) ;
#145 = FACE_OUTER_BOUND ( 'NONE', #197, .T. ) ;
#146 = ORIENTED_EDGE ( 'NONE', *, *, #137, .F. ) ;
#147 = FACE_OUTER_BOUND ( 'NONE', #43, .T. ) ;
#148 = CC_DESIGN_APPROVAL ( #189, ( #160 ) ) ;
#149 = CALENDAR_DATE ( 2021, 9, 11 ) ;
#150 = UNCERTAINTY_MEASURE_WITH_UNIT (LENGTH_MEASURE( 1.000000000000000082E-05 ), #108, 'distance_accuracy_value', 'NONE');
#151 = CIRCLE ( 'NONE', #185, 3.000000000000000000 ) ;
#152 = COORDINATED_UNIVERSAL_TIME_OFFSET ( 1, 0, .AHEAD. ) ;
#153 = COORDINATED_UNIVERSAL_TIME_OFFSET ( 1, 0, .AHEAD. ) ;
#154 = SECURITY_CLASSIFICATION_LEVEL ( 'unclassified' ) ;
#155 = PERSON ( 'UNSPECIFIED', 'UNSPECIFIED', 'UNSPECIFIED', ('UNSPECIFIED'), ('UNSPECIFIED'), ('UNSPECIFIED') ) ;
#156 = DIRECTION ( 'NONE',  ( -3.491481338843133355E-15, 1.224646799147353207E-16, -1.000000000000000000 ) ) ;
#157 = ADVANCED_FACE ( 'NONE', ( #52, #5 ), #69, .T. ) ;
#158 = ADVANCED_FACE ( 'NONE', ( #84 ), #21, .T. ) ;
#159 = DIRECTION ( 'NONE',  ( 0.0000000000000000000, 1.000000000000000000, 0.0000000000000000000 ) ) ;
#160 = PRODUCT_DEFINITION_FORMATION_WITH_SPECIFIED_SOURCE ( 'ANY', '', #94, .NOT_KNOWN. ) ;
#161 = FACE_OUTER_BOUND ( 'NONE', #58, .T. ) ;
#162 = CYLINDRICAL_SURFACE ( 'NONE', #8, 3.000000000000000000 ) ;
#163 = DIRECTION ( 'NONE',  ( -3.491481338843133355E-15, 1.224646799147353207E-16, -1.000000000000000000 ) ) ;
#164 = AXIS2_PLACEMENT_3D ( 'NONE', #116, #134, #190 ) ;
#165 = PERSON_AND_ORGANIZATION ( #155, #20 ) ;
#166 = APPROVAL_ROLE ( '' ) ;
#167 = CIRCLE ( 'NONE', #195, 3.000000000000000000 ) ;
#168 = CC_DESIGN_APPROVAL ( #27, ( #201 ) ) ;
#169 = PERSON_AND_ORGANIZATION ( #155, #20 ) ;
#170 = EDGE_LOOP ( 'NONE', ( #133 ) ) ;
#171 = CALENDAR_DATE ( 2021, 9, 11 ) ;
#172 = ORIENTED_EDGE ( 'NONE', *, *, #114, .F. ) ;
#173 = APPROVAL_STATUS ( 'not_yet_approved' ) ;
#174 = CARTESIAN_POINT ( 'NONE',  ( 1.396592535537253342E-13, -4.898587196589413026E-15, 40.00000000000000000 ) ) ;
#175 = ADVANCED_FACE ( 'NONE', ( #147 ), #4, .F. ) ;
#176 = CARTESIAN_POINT ( 'NONE',  ( 1.396592535537253342E-13, 2.999999999999995115, 40.00000000000000000 ) ) ;
#177 = AXIS2_PLACEMENT_3D ( 'NONE', #101, #178, #86 ) ;
#178 = DIRECTION ( 'NONE',  ( 3.491481338843133355E-15, -1.224646799147353207E-16, 1.000000000000000000 ) ) ;
#179 = CARTESIAN_POINT ( 'NONE',  ( 0.0000000000000000000, 0.0000000000000000000, 0.0000000000000000000 ) ) ;
#180 = PRODUCT_DEFINITION ( 'UNKNOWN', '', #160, #73 ) ;
#181 = DIRECTION ( 'NONE',  ( 4.275831445896959482E-31, 1.000000000000000000, 1.224646799147353207E-16 ) ) ;
#182 = DATE_TIME_ROLE ( 'classification_date' ) ;
#183 = APPROVAL_DATE_TIME ( #123, #55 ) ;
#184 = ADVANCED_BREP_SHAPE_REPRESENTATION ( '44759', ( #96, #32, #105 ), #60 ) ;
#185 = AXIS2_PLACEMENT_3D ( 'NONE', #66, #130, #191 ) ;
#186 = PERSON_AND_ORGANIZATION_ROLE ( 'creator' ) ;
#187 = CYLINDRICAL_SURFACE ( 'NONE', #46, 3.000000000000000444 ) ;
#188 = DIRECTION ( 'NONE',  ( -3.491481338843133355E-15, 1.224646799147353207E-16, -1.000000000000000000 ) ) ;
#189 = APPROVAL ( #135, 'UNSPECIFIED' ) ;
#190 = DIRECTION ( 'NONE',  ( 0.0000000000000000000, 1.000000000000000000, 0.0000000000000000000 ) ) ;
#191 = DIRECTION ( 'NONE',  ( 0.0000000000000000000, 1.000000000000000000, 0.0000000000000000000 ) ) ;
#192 = CIRCLE ( 'NONE', #56, 2.500000000000000444 ) ;
#193 = COORDINATED_UNIVERSAL_TIME_OFFSET ( 1, 0, .AHEAD. ) ;
#194 = EDGE_LOOP ( 'NONE', ( #74 ) ) ;
#195 = AXIS2_PLACEMENT_3D ( 'NONE', #174, #156, #112 ) ;
#196 = PERSON_AND_ORGANIZATION ( #155, #20 ) ;
#197 = EDGE_LOOP ( 'NONE', ( #107 ) ) ;
#198 =( NAMED_UNIT ( * ) SI_UNIT ( $, .STERADIAN. ) SOLID_ANGLE_UNIT ( ) );
#199 = ORIENTED_EDGE ( 'NONE', *, *, #47, .T. ) ;
#200 = PERSON_AND_ORGANIZATION_ROLE ( 'design_owner' ) ;
#201 = SECURITY_CLASSIFICATION ( '', '', #154 ) ;
#202 = DIRECTION ( 'NONE',  ( 4.275831445896958607E-31, 1.000000000000000000, 1.224646799147353207E-16 ) ) ;
#203 = APPLICATION_CONTEXT ( 'configuration controlled 3d designs of mechanical parts and assemblies' ) ;
ENDSEC;
END-ISO-10303-21;
