ISO-10303-21;
HEADER;
FILE_DESCRIPTION (( 'STEP AP203' ),
    '1' );
FILE_NAME ('44758.step',
    '2021-11-09T09:06:46',
    ( '' ),
    ( '' ),
    'SwSTEP 2.0',
    'SolidWorks 2019',
    '' );
FILE_SCHEMA (( 'CONFIG_CONTROL_DESIGN' ));
ENDSEC;

DATA;
#1 = CYLINDRICAL_SURFACE ( 'NONE', #76, 2.499999999999998668 ) ;
#2 = APPROVAL_PERSON_ORGANIZATION ( #84, #195, #35 ) ;
#3 = DIRECTION ( 'NONE',  ( 0.0000000000000000000, 1.000000000000000000, 0.0000000000000000000 ) ) ;
#4 = DATE_AND_TIME ( #54, #127 ) ;
#5 = DESIGN_CONTEXT ( 'detailed design', #203, 'design' ) ;
#6 = ADVANCED_FACE ( 'NONE', ( #200 ), #202, .F. ) ;
#7 = AXIS2_PLACEMENT_3D ( 'NONE', #108, #143, #27 ) ;
#8 = APPROVAL_PERSON_ORGANIZATION ( #72, #45, #198 ) ;
#9 = PRODUCT ( '44758', '44758', '', ( #42 ) ) ;
#10 = DATE_AND_TIME ( #41, #59 ) ;
#11 = SECURITY_CLASSIFICATION_LEVEL ( 'unclassified' ) ;
#12 = EDGE_LOOP ( 'NONE', ( #94 ) ) ;
#13 = APPROVAL_PERSON_ORGANIZATION ( #194, #175, #57 ) ;
#14 = EDGE_LOOP ( 'NONE', ( #128 ) ) ;
#15 = ADVANCED_FACE ( 'NONE', ( #33, #107 ), #166, .T. ) ;
#16 = CARTESIAN_POINT ( 'NONE',  ( 1.222018468595096801E-13, 2.499999999999995559, 35.00000000000000000 ) ) ;
#17 = DIRECTION ( 'NONE',  ( -3.491481338843133355E-15, 1.224646799147353207E-16, -1.000000000000000000 ) ) ;
#18 = CARTESIAN_POINT ( 'NONE',  ( 0.0000000000000000000, 2.500000000000000000, 0.0000000000000000000 ) ) ;
#19 = COORDINATED_UNIVERSAL_TIME_OFFSET ( 1, 0, .AHEAD. ) ;
#20 = MANIFOLD_SOLID_BREP ( 'Corps-Déplacer/Copier1[1]', #23 ) ;
#21 = PERSON_AND_ORGANIZATION ( #197, #177 ) ;
#22 = DATE_TIME_ROLE ( 'creation_date' ) ;
#23 = CLOSED_SHELL ( 'NONE', ( #26, #186, #15, #6 ) ) ;
#24 = CALENDAR_DATE ( 2021, 9, 11 ) ;
#25 = EDGE_LOOP ( 'NONE', ( #114 ) ) ;
#26 = ADVANCED_FACE ( 'NONE', ( #174 ), #129, .F. ) ;
#27 = DIRECTION ( 'NONE',  ( 0.0000000000000000000, 1.000000000000000000, 0.0000000000000000000 ) ) ;
#28 = AXIS2_PLACEMENT_3D ( 'NONE', #43, #153, #89 ) ;
#29 = ORIENTED_EDGE ( 'NONE', *, *, #55, .T. ) ;
#30 = CC_DESIGN_APPROVAL ( #175, ( #51 ) ) ;
#31 = EDGE_CURVE ( 'NONE', #70, #70, #145, .T. ) ;
#32 = DIRECTION ( 'NONE',  ( 3.491481338843133355E-15, -1.224646799147353207E-16, 1.000000000000000000 ) ) ;
#33 = FACE_BOUND ( 'NONE', #185, .T. ) ;
#34 = PERSON_AND_ORGANIZATION ( #197, #177 ) ;
#35 = APPROVAL_ROLE ( '' ) ;
#36 = CC_DESIGN_DATE_AND_TIME_ASSIGNMENT ( #4, #48, ( #156 ) ) ;
#37 =( GEOMETRIC_REPRESENTATION_CONTEXT ( 3 ) GLOBAL_UNCERTAINTY_ASSIGNED_CONTEXT ( ( #120 ) ) GLOBAL_UNIT_ASSIGNED_CONTEXT ( ( #47, #179, #80 ) ) REPRESENTATION_CONTEXT ( 'NONE', 'WORKASPACE' ) );
#38 = VERTEX_POINT ( 'NONE', #18 ) ;
#39 = DIRECTION ( 'NONE',  ( 0.0000000000000000000, 0.0000000000000000000, 1.000000000000000000 ) ) ;
#40 = EDGE_CURVE ( 'NONE', #82, #82, #58, .T. ) ;
#41 = CALENDAR_DATE ( 2021, 9, 11 ) ;
#42 = MECHANICAL_CONTEXT ( 'NONE', #144, 'mechanical' ) ;
#43 = CARTESIAN_POINT ( 'NONE',  ( 2.618611004132350143E-13, 1.499759782661846934E-32, 75.00000000000000000 ) ) ;
#44 = DIRECTION ( 'NONE',  ( 0.0000000000000000000, 1.000000000000000000, 0.0000000000000000000 ) ) ;
#45 = APPROVAL ( #167, 'UNSPECIFIED' ) ;
#46 = DIRECTION ( 'NONE',  ( 4.275831445896958607E-31, 1.000000000000000000, 1.224646799147353207E-16 ) ) ;
#47 =( LENGTH_UNIT ( ) NAMED_UNIT ( * ) SI_UNIT ( .MILLI., .METRE. ) );
#48 = DATE_TIME_ROLE ( 'classification_date' ) ;
#49 = AXIS2_PLACEMENT_3D ( 'NONE', #68, #50, #96 ) ;
#50 = DIRECTION ( 'NONE',  ( -3.491481338843133355E-15, 1.224646799147353207E-16, -1.000000000000000000 ) ) ;
#51 = PRODUCT_DEFINITION ( 'UNKNOWN', '', #137, #5 ) ;
#52 = FACE_OUTER_BOUND ( 'NONE', #142, .T. ) ;
#53 = CLOSED_SHELL ( 'NONE', ( #196, #165, #119 ) ) ;
#54 = CALENDAR_DATE ( 2021, 9, 11 ) ;
#55 = EDGE_CURVE ( 'NONE', #190, #190, #170, .T. ) ;
#56 = EDGE_CURVE ( 'NONE', #38, #38, #126, .T. ) ;
#57 = APPROVAL_ROLE ( '' ) ;
#58 = CIRCLE ( 'NONE', #172, 2.499999999999997335 ) ;
#59 = LOCAL_TIME ( 10, 6, 46.00000000000000000, #121 ) ;
#60 = APPROVAL_DATE_TIME ( #138, #45 ) ;
#61 = CARTESIAN_POINT ( 'NONE',  ( 2.618611004132350143E-13, -9.184850993605148733E-15, 75.00000000000000000 ) ) ;
#62 = ORIENTED_EDGE ( 'NONE', *, *, #31, .F. ) ;
#63 = AXIS2_PLACEMENT_3D ( 'NONE', #134, #39, #71 ) ;
#64 = CARTESIAN_POINT ( 'NONE',  ( 1.222018468595096801E-13, 1.874699728327315715E-32, 35.00000000000000000 ) ) ;
#65 = EDGE_LOOP ( 'NONE', ( #75 ) ) ;
#66 = DIRECTION ( 'NONE',  ( 0.0000000000000000000, 1.000000000000000000, 0.0000000000000000000 ) ) ;
#67 = CIRCLE ( 'NONE', #112, 2.000000000000003997 ) ;
#68 = CARTESIAN_POINT ( 'NONE',  ( 0.0000000000000000000, 0.0000000000000000000, 0.0000000000000000000 ) ) ;
#69 = LOCAL_TIME ( 10, 6, 46.00000000000000000, #124 ) ;
#70 = VERTEX_POINT ( 'NONE', #133 ) ;
#71 = DIRECTION ( 'NONE',  ( 1.000000000000000000, 0.0000000000000000000, 0.0000000000000000000 ) ) ;
#72 = PERSON_AND_ORGANIZATION ( #197, #177 ) ;
#73 = PLANE ( 'NONE',  #130 ) ;
#74 = ORIENTED_EDGE ( 'NONE', *, *, #40, .T. ) ;
#75 = ORIENTED_EDGE ( 'NONE', *, *, #55, .F. ) ;
#76 = AXIS2_PLACEMENT_3D ( 'NONE', #180, #160, #100 ) ;
#77 = EDGE_LOOP ( 'NONE', ( #29 ) ) ;
#78 = DIRECTION ( 'NONE',  ( -3.491481338843133355E-15, 1.224646799147353207E-16, -1.000000000000000000 ) ) ;
#79 = AXIS2_PLACEMENT_3D ( 'NONE', #64, #32, #187 ) ;
#80 =( NAMED_UNIT ( * ) SI_UNIT ( $, .STERADIAN. ) SOLID_ANGLE_UNIT ( ) );
#81 = PRODUCT_DEFINITION_SHAPE ( 'NONE', 'NONE',  #51 ) ;
#82 = VERTEX_POINT ( 'NONE', #159 ) ;
#83 = VERTEX_POINT ( 'NONE', #191 ) ;
#84 = PERSON_AND_ORGANIZATION ( #197, #177 ) ;
#85 = LOCAL_TIME ( 10, 6, 46.00000000000000000, #181 ) ;
#86 = PERSON_AND_ORGANIZATION_ROLE ( 'creator' ) ;
#87 = ADVANCED_BREP_SHAPE_REPRESENTATION ( '44758', ( #20, #91, #63 ), #37 ) ;
#88 = PERSON_AND_ORGANIZATION ( #197, #177 ) ;
#89 = DIRECTION ( 'NONE',  ( 4.275831445896958607E-31, 1.000000000000000000, 1.224646799147353207E-16 ) ) ;
#90 = FACE_OUTER_BOUND ( 'NONE', #171, .T. ) ;
#91 = MANIFOLD_SOLID_BREP ( 'Corps-Déplacer/Copier1[2]', #53 ) ;
#92 = ORIENTED_EDGE ( 'NONE', *, *, #141, .T. ) ;
#93 = CARTESIAN_POINT ( 'NONE',  ( 1.222018468595096801E-13, -4.286263797015736496E-15, 35.00000000000000000 ) ) ;
#94 = ORIENTED_EDGE ( 'NONE', *, *, #40, .F. ) ;
#95 = AXIS2_PLACEMENT_3D ( 'NONE', #93, #188, #66 ) ;
#96 = DIRECTION ( 'NONE',  ( 4.275831445896958607E-31, 1.000000000000000000, 1.224646799147353207E-16 ) ) ;
#97 = CALENDAR_DATE ( 2021, 9, 11 ) ;
#98 = FACE_OUTER_BOUND ( 'NONE', #201, .T. ) ;
#99 = APPROVAL_DATE_TIME ( #178, #195 ) ;
#100 = DIRECTION ( 'NONE',  ( 4.275831445896959482E-31, 1.000000000000000000, 1.224646799147353207E-16 ) ) ;
#101 = DIRECTION ( 'NONE',  ( 4.275831445896958607E-31, 1.000000000000000000, 1.224646799147353207E-16 ) ) ;
#102 = CC_DESIGN_PERSON_AND_ORGANIZATION_ASSIGNMENT ( #88, #149, ( #137 ) ) ;
#103 = CC_DESIGN_APPROVAL ( #195, ( #156 ) ) ;
#104 = APPROVAL_DATE_TIME ( #10, #175 ) ;
#105 = CALENDAR_DATE ( 2021, 9, 11 ) ;
#106 = PERSON_AND_ORGANIZATION_ROLE ( 'design_supplier' ) ;
#107 = FACE_OUTER_BOUND ( 'NONE', #12, .T. ) ;
#108 = CARTESIAN_POINT ( 'NONE',  ( 1.222018468595096801E-13, -4.286263797015736496E-15, 35.00000000000000000 ) ) ;
#109 = CC_DESIGN_PERSON_AND_ORGANIZATION_ASSIGNMENT ( #163, #123, ( #9 ) ) ;
#110 = CARTESIAN_POINT ( 'NONE',  ( 1.222018468595096801E-13, 1.874699728327315715E-32, 35.00000000000000000 ) ) ;
#111 = ORIENTED_EDGE ( 'NONE', *, *, #141, .F. ) ;
#112 = AXIS2_PLACEMENT_3D ( 'NONE', #61, #125, #3 ) ;
#113 = CC_DESIGN_PERSON_AND_ORGANIZATION_ASSIGNMENT ( #184, #106, ( #137 ) ) ;
#114 = ORIENTED_EDGE ( 'NONE', *, *, #56, .F. ) ;
#115 = CYLINDRICAL_SURFACE ( 'NONE', #49, 2.500000000000000000 ) ;
#116 = APPROVAL_STATUS ( 'not_yet_approved' ) ;
#117 = PLANE ( 'NONE',  #148 ) ;
#118 = PERSON_AND_ORGANIZATION_ROLE ( 'classification_officer' ) ;
#119 = ADVANCED_FACE ( 'NONE', ( #90 ), #73, .T. ) ;
#120 = UNCERTAINTY_MEASURE_WITH_UNIT (LENGTH_MEASURE( 1.000000000000000082E-05 ), #47, 'distance_accuracy_value', 'NONE');
#121 = COORDINATED_UNIVERSAL_TIME_OFFSET ( 1, 0, .AHEAD. ) ;
#122 = CC_DESIGN_SECURITY_CLASSIFICATION ( #156, ( #137 ) ) ;
#123 = PERSON_AND_ORGANIZATION_ROLE ( 'design_owner' ) ;
#124 = COORDINATED_UNIVERSAL_TIME_OFFSET ( 1, 0, .AHEAD. ) ;
#125 = DIRECTION ( 'NONE',  ( -3.491481338843133355E-15, 1.224646799147353207E-16, -1.000000000000000000 ) ) ;
#126 = CIRCLE ( 'NONE', #147, 2.500000000000000000 ) ;
#127 = LOCAL_TIME ( 10, 6, 46.00000000000000000, #19 ) ;
#128 = ORIENTED_EDGE ( 'NONE', *, *, #56, .T. ) ;
#129 = PLANE ( 'NONE',  #79 ) ;
#130 = AXIS2_PLACEMENT_3D ( 'NONE', #110, #199, #151 ) ;
#131 = CARTESIAN_POINT ( 'NONE',  ( -1.068957861474239564E-30, 3.749399456654644020E-32, -3.061616997868383141E-16 ) ) ;
#132 = FACE_OUTER_BOUND ( 'NONE', #65, .T. ) ;
#133 = CARTESIAN_POINT ( 'NONE',  ( 1.222018468595096801E-13, 2.499999999999995559, 35.00000000000000000 ) ) ;
#134 = CARTESIAN_POINT ( 'NONE',  ( 0.0000000000000000000, 0.0000000000000000000, 0.0000000000000000000 ) ) ;
#135 = FACE_OUTER_BOUND ( 'NONE', #25, .T. ) ;
#136 = PRODUCT_RELATED_PRODUCT_CATEGORY ( 'detail', '', ( #9 ) ) ;
#137 = PRODUCT_DEFINITION_FORMATION_WITH_SPECIFIED_SOURCE ( 'ANY', '', #9, .NOT_KNOWN. ) ;
#138 = DATE_AND_TIME ( #24, #69 ) ;
#139 = DIRECTION ( 'NONE',  ( -3.491481338843133355E-15, 1.224646799147353207E-16, -1.000000000000000000 ) ) ;
#140 = EDGE_LOOP ( 'NONE', ( #111 ) ) ;
#141 = EDGE_CURVE ( 'NONE', #83, #83, #67, .T. ) ;
#142 = EDGE_LOOP ( 'NONE', ( #74 ) ) ;
#143 = DIRECTION ( 'NONE',  ( -3.491481338843133355E-15, 1.224646799147353207E-16, -1.000000000000000000 ) ) ;
#144 = APPLICATION_CONTEXT ( 'configuration controlled 3d designs of mechanical parts and assemblies' ) ;
#145 = CIRCLE ( 'NONE', #95, 2.500000000000000000 ) ;
#146 = CC_DESIGN_APPROVAL ( #45, ( #137 ) ) ;
#147 = AXIS2_PLACEMENT_3D ( 'NONE', #131, #189, #46 ) ;
#148 = AXIS2_PLACEMENT_3D ( 'NONE', #157, #17, #101 ) ;
#149 = PERSON_AND_ORGANIZATION_ROLE ( 'creator' ) ;
#150 = ORIENTED_EDGE ( 'NONE', *, *, #31, .T. ) ;
#151 = DIRECTION ( 'NONE',  ( -4.275831445896958607E-31, -1.000000000000000000, -1.224646799147353207E-16 ) ) ;
#152 = CC_DESIGN_PERSON_AND_ORGANIZATION_ASSIGNMENT ( #21, #86, ( #51 ) ) ;
#153 = DIRECTION ( 'NONE',  ( -3.491481338843133355E-15, 1.224646799147353207E-16, -1.000000000000000000 ) ) ;
#154 = CARTESIAN_POINT ( 'NONE',  ( 2.601153597438135044E-13, -9.123618653647784315E-15, 74.50000000000002842 ) ) ;
#155 = SHAPE_DEFINITION_REPRESENTATION ( #81, #87 ) ;
#156 = SECURITY_CLASSIFICATION ( '', '', #11 ) ;
#157 = CARTESIAN_POINT ( 'NONE',  ( -5.344789307371197820E-31, 1.874699728327322010E-32, -1.530808498934191571E-16 ) ) ;
#158 = CC_DESIGN_DATE_AND_TIME_ASSIGNMENT ( #164, #22, ( #51 ) ) ;
#159 = CARTESIAN_POINT ( 'NONE',  ( 2.601153597438135044E-13, 2.499999999999988454, 74.50000000000002842 ) ) ;
#160 = DIRECTION ( 'NONE',  ( -3.491481338843133355E-15, 1.224646799147353207E-16, -1.000000000000000000 ) ) ;
#161 = FACE_OUTER_BOUND ( 'NONE', #14, .T. ) ;
#162 = CC_DESIGN_PERSON_AND_ORGANIZATION_ASSIGNMENT ( #34, #118, ( #156 ) ) ;
#163 = PERSON_AND_ORGANIZATION ( #197, #177 ) ;
#164 = DATE_AND_TIME ( #105, #168 ) ;
#165 = ADVANCED_FACE ( 'NONE', ( #98, #135 ), #115, .T. ) ;
#166 = CONICAL_SURFACE ( 'NONE', #183, 2.499999999999997335, 0.7853981633974691512 ) ;
#167 = APPROVAL_STATUS ( 'not_yet_approved' ) ;
#168 = LOCAL_TIME ( 10, 6, 46.00000000000000000, #182 ) ;
#169 = DIRECTION ( 'NONE',  ( 0.0000000000000000000, 1.000000000000000000, 0.0000000000000000000 ) ) ;
#170 = CIRCLE ( 'NONE', #7, 2.500000000000000000 ) ;
#171 = EDGE_LOOP ( 'NONE', ( #62 ) ) ;
#172 = AXIS2_PLACEMENT_3D ( 'NONE', #154, #78, #44 ) ;
#173 = CARTESIAN_POINT ( 'NONE',  ( 2.601153597438135044E-13, -9.123618653647784315E-15, 74.50000000000002842 ) ) ;
#174 = FACE_OUTER_BOUND ( 'NONE', #77, .T. ) ;
#175 = APPROVAL ( #192, 'UNSPECIFIED' ) ;
#176 = APPLICATION_PROTOCOL_DEFINITION ( 'international standard', 'config_control_design', 1994, #144 ) ;
#177 = ORGANIZATION ( 'UNSPECIFIED', 'UNSPECIFIED', '' ) ;
#178 = DATE_AND_TIME ( #97, #85 ) ;
#179 =( NAMED_UNIT ( * ) PLANE_ANGLE_UNIT ( ) SI_UNIT ( $, .RADIAN. ) );
#180 = CARTESIAN_POINT ( 'NONE',  ( 0.0000000000000000000, 0.0000000000000000000, 0.0000000000000000000 ) ) ;
#181 = COORDINATED_UNIVERSAL_TIME_OFFSET ( 1, 0, .AHEAD. ) ;
#182 = COORDINATED_UNIVERSAL_TIME_OFFSET ( 1, 0, .AHEAD. ) ;
#183 = AXIS2_PLACEMENT_3D ( 'NONE', #173, #139, #169 ) ;
#184 = PERSON_AND_ORGANIZATION ( #197, #177 ) ;
#185 = EDGE_LOOP ( 'NONE', ( #92 ) ) ;
#186 = ADVANCED_FACE ( 'NONE', ( #52, #132 ), #1, .T. ) ;
#187 = DIRECTION ( 'NONE',  ( -4.275831445896958607E-31, -1.000000000000000000, -1.224646799147353207E-16 ) ) ;
#188 = DIRECTION ( 'NONE',  ( -3.491481338843133355E-15, 1.224646799147353207E-16, -1.000000000000000000 ) ) ;
#189 = DIRECTION ( 'NONE',  ( -3.491481338843133355E-15, 1.224646799147353207E-16, -1.000000000000000000 ) ) ;
#190 = VERTEX_POINT ( 'NONE', #16 ) ;
#191 = CARTESIAN_POINT ( 'NONE',  ( 2.618611004132350143E-13, 1.999999999999994893, 75.00000000000000000 ) ) ;
#192 = APPROVAL_STATUS ( 'not_yet_approved' ) ;
#193 = APPLICATION_PROTOCOL_DEFINITION ( 'international standard', 'config_control_design', 1994, #203 ) ;
#194 = PERSON_AND_ORGANIZATION ( #197, #177 ) ;
#195 = APPROVAL ( #116, 'UNSPECIFIED' ) ;
#196 = ADVANCED_FACE ( 'NONE', ( #161 ), #117, .T. ) ;
#197 = PERSON ( 'UNSPECIFIED', 'UNSPECIFIED', 'UNSPECIFIED', ('UNSPECIFIED'), ('UNSPECIFIED'), ('UNSPECIFIED') ) ;
#198 = APPROVAL_ROLE ( '' ) ;
#199 = DIRECTION ( 'NONE',  ( 3.491481338843133355E-15, -1.224646799147353207E-16, 1.000000000000000000 ) ) ;
#200 = FACE_OUTER_BOUND ( 'NONE', #140, .T. ) ;
#201 = EDGE_LOOP ( 'NONE', ( #150 ) ) ;
#202 = PLANE ( 'NONE',  #28 ) ;
#203 = APPLICATION_CONTEXT ( 'configuration controlled 3d designs of mechanical parts and assemblies' ) ;
ENDSEC;
END-ISO-10303-21;
