ISO-10303-21;
HEADER;
FILE_DESCRIPTION (( 'STEP AP203' ),
    '1' );
FILE_NAME ('44757.step',
    '2021-11-09T09:06:45',
    ( '' ),
    ( '' ),
    'SwSTEP 2.0',
    'SolidWorks 2019',
    '' );
FILE_SCHEMA (( 'CONFIG_CONTROL_DESIGN' ));
ENDSEC;

DATA;
#1 = FACE_OUTER_BOUND ( 'NONE', #19, .T. ) ;
#2 = ORGANIZATION ( 'UNSPECIFIED', 'UNSPECIFIED', '' ) ;
#3 = ORIENTED_EDGE ( 'NONE', *, *, #70, .T. ) ;
#4 = AXIS2_PLACEMENT_3D ( 'NONE', #133, #43, #58 ) ;
#5 = CIRCLE ( 'NONE', #130, 2.000000000000000000 ) ;
#6 = ORIENTED_EDGE ( 'NONE', *, *, #76, .T. ) ;
#7 = DIRECTION ( 'NONE',  ( 3.491481338843133355E-15, -1.224646799147353207E-16, 1.000000000000000000 ) ) ;
#8 = CARTESIAN_POINT ( 'NONE',  ( 1.047444401652940007E-13, 1.499759782661852681E-32, 30.00000000000000000 ) ) ;
#9 = CARTESIAN_POINT ( 'NONE',  ( 2.080922877950507480E-13, -7.298894922918224927E-15, 59.60000000000000142 ) ) ;
#10 = DIRECTION ( 'NONE',  ( 4.275831445896958607E-31, 1.000000000000000000, 1.224646799147353207E-16 ) ) ;
#11 = DIRECTION ( 'NONE',  ( 0.0000000000000000000, 1.000000000000000000, 0.0000000000000000000 ) ) ;
#12 = CC_DESIGN_PERSON_AND_ORGANIZATION_ASSIGNMENT ( #187, #111, ( #102 ) ) ;
#13 = CALENDAR_DATE ( 2021, 9, 11 ) ;
#14 = EDGE_LOOP ( 'NONE', ( #101 ) ) ;
#15 = AXIS2_PLACEMENT_3D ( 'NONE', #138, #195, #173 ) ;
#16 = ORIENTED_EDGE ( 'NONE', *, *, #40, .T. ) ;
#17 = ADVANCED_BREP_SHAPE_REPRESENTATION ( '44757', ( #22, #91, #29 ), #117 ) ;
#18 = APPROVAL ( #27, 'UNSPECIFIED' ) ;
#19 = EDGE_LOOP ( 'NONE', ( #6 ) ) ;
#20 = VERTEX_POINT ( 'NONE', #122 ) ;
#21 = CIRCLE ( 'NONE', #164, 2.000000000000000000 ) ;
#22 = MANIFOLD_SOLID_BREP ( 'Corps-Déplacer/Copier1[1]', #67 ) ;
#23 = DIRECTION ( 'NONE',  ( -3.491481338843133355E-15, 1.224646799147353207E-16, -1.000000000000000000 ) ) ;
#24 = FACE_OUTER_BOUND ( 'NONE', #118, .T. ) ;
#25 = FACE_OUTER_BOUND ( 'NONE', #190, .T. ) ;
#26 = PLANE ( 'NONE',  #140 ) ;
#27 = APPROVAL_STATUS ( 'not_yet_approved' ) ;
#28 = APPROVAL ( #144, 'UNSPECIFIED' ) ;
#29 = AXIS2_PLACEMENT_3D ( 'NONE', #113, #202, #79 ) ;
#30 = DATE_TIME_ROLE ( 'creation_date' ) ;
#31 = ADVANCED_FACE ( 'NONE', ( #1, #115 ), #62, .T. ) ;
#32 = DATE_AND_TIME ( #13, #53 ) ;
#33 = PERSON_AND_ORGANIZATION_ROLE ( 'design_supplier' ) ;
#34 = SECURITY_CLASSIFICATION ( '', '', #163 ) ;
#35 = EDGE_LOOP ( 'NONE', ( #84 ) ) ;
#36 = ADVANCED_FACE ( 'NONE', ( #87, #24 ), #123, .T. ) ;
#37 = DATE_AND_TIME ( #55, #166 ) ;
#38 = UNCERTAINTY_MEASURE_WITH_UNIT (LENGTH_MEASURE( 1.000000000000000082E-05 ), #107, 'distance_accuracy_value', 'NONE');
#39 = LOCAL_TIME ( 10, 6, 45.00000000000000000, #129 ) ;
#40 = EDGE_CURVE ( 'NONE', #73, #73, #167, .T. ) ;
#41 = EDGE_LOOP ( 'NONE', ( #98 ) ) ;
#42 = VERTEX_POINT ( 'NONE', #191 ) ;
#43 = DIRECTION ( 'NONE',  ( -3.491481338843133355E-15, 1.224646799147353207E-16, -1.000000000000000000 ) ) ;
#44 = PERSON ( 'UNSPECIFIED', 'UNSPECIFIED', 'UNSPECIFIED', ('UNSPECIFIED'), ('UNSPECIFIED'), ('UNSPECIFIED') ) ;
#45 = VERTEX_POINT ( 'NONE', #57 ) ;
#46 = FACE_OUTER_BOUND ( 'NONE', #41, .T. ) ;
#47 = MECHANICAL_CONTEXT ( 'NONE', #201, 'mechanical' ) ;
#48 = PERSON_AND_ORGANIZATION ( #44, #2 ) ;
#49 = CALENDAR_DATE ( 2021, 9, 11 ) ;
#50 = CC_DESIGN_PERSON_AND_ORGANIZATION_ASSIGNMENT ( #200, #131, ( #148 ) ) ;
#51 = PERSON_AND_ORGANIZATION ( #44, #2 ) ;
#52 = EDGE_LOOP ( 'NONE', ( #83 ) ) ;
#53 = LOCAL_TIME ( 10, 6, 45.00000000000000000, #93 ) ;
#54 = EDGE_LOOP ( 'NONE', ( #178 ) ) ;
#55 = CALENDAR_DATE ( 2021, 9, 11 ) ;
#56 = EDGE_LOOP ( 'NONE', ( #16 ) ) ;
#57 = CARTESIAN_POINT ( 'NONE',  ( 2.094888803305879761E-13, 1.599999999999990319, 59.99999999999999289 ) ) ;
#58 = DIRECTION ( 'NONE',  ( 0.0000000000000000000, 1.000000000000000000, 0.0000000000000000000 ) ) ;
#59 = VERTEX_POINT ( 'NONE', #119 ) ;
#60 = APPROVAL_PERSON_ORGANIZATION ( #48, #18, #92 ) ;
#61 = DIRECTION ( 'NONE',  ( -3.491481338843133355E-15, 1.224646799147353207E-16, -1.000000000000000000 ) ) ;
#62 = CYLINDRICAL_SURFACE ( 'NONE', #105, 2.000000000000000000 ) ;
#63 = PRODUCT_RELATED_PRODUCT_CATEGORY ( 'detail', '', ( #126 ) ) ;
#64 = DATE_AND_TIME ( #199, #143 ) ;
#65 = APPLICATION_PROTOCOL_DEFINITION ( 'international standard', 'config_control_design', 1994, #132 ) ;
#66 = APPROVAL_PERSON_ORGANIZATION ( #114, #112, #174 ) ;
#67 = CLOSED_SHELL ( 'NONE', ( #150, #121, #36, #86 ) ) ;
#68 = PERSON_AND_ORGANIZATION ( #44, #2 ) ;
#69 = CC_DESIGN_SECURITY_CLASSIFICATION ( #34, ( #148 ) ) ;
#70 = EDGE_CURVE ( 'NONE', #59, #59, #21, .T. ) ;
#71 = ORIENTED_EDGE ( 'NONE', *, *, #40, .F. ) ;
#72 = CARTESIAN_POINT ( 'NONE',  ( 2.080922877950507480E-13, 1.999999999999988010, 59.60000000000000142 ) ) ;
#73 = VERTEX_POINT ( 'NONE', #72 ) ;
#74 = DIRECTION ( 'NONE',  ( 0.0000000000000000000, 1.000000000000000000, 0.0000000000000000000 ) ) ;
#75 = CC_DESIGN_APPROVAL ( #28, ( #102 ) ) ;
#76 = EDGE_CURVE ( 'NONE', #42, #42, #134, .T. ) ;
#77 = CARTESIAN_POINT ( 'NONE',  ( 1.047444401652940007E-13, -3.673940397442059178E-15, 30.00000000000000000 ) ) ;
#78 = PERSON_AND_ORGANIZATION_ROLE ( 'classification_officer' ) ;
#79 = DIRECTION ( 'NONE',  ( 1.000000000000000000, 0.0000000000000000000, 0.0000000000000000000 ) ) ;
#80 = CLOSED_SHELL ( 'NONE', ( #106, #31, #189 ) ) ;
#81 =( NAMED_UNIT ( * ) SI_UNIT ( $, .STERADIAN. ) SOLID_ANGLE_UNIT ( ) );
#82 = APPROVAL_DATE_TIME ( #32, #112 ) ;
#83 = ORIENTED_EDGE ( 'NONE', *, *, #97, .T. ) ;
#84 = ORIENTED_EDGE ( 'NONE', *, *, #137, .F. ) ;
#85 = DIRECTION ( 'NONE',  ( 4.275831445896958607E-31, 1.000000000000000000, 1.224646799147353207E-16 ) ) ;
#86 = ADVANCED_FACE ( 'NONE', ( #25 ), #26, .F. ) ;
#87 = FACE_BOUND ( 'NONE', #52, .T. ) ;
#88 = CARTESIAN_POINT ( 'NONE',  ( -4.275831445896957731E-31, 1.499759782661857608E-32, -1.224646799147353207E-16 ) ) ;
#89 = DIRECTION ( 'NONE',  ( -4.275831445896958607E-31, -1.000000000000000000, -1.224646799147353207E-16 ) ) ;
#90 = CARTESIAN_POINT ( 'NONE',  ( 1.047444401652940007E-13, 1.499759782661852681E-32, 30.00000000000000000 ) ) ;
#91 = MANIFOLD_SOLID_BREP ( 'Corps-Déplacer/Copier1[2]', #80 ) ;
#92 = APPROVAL_ROLE ( '' ) ;
#93 = COORDINATED_UNIVERSAL_TIME_OFFSET ( 1, 0, .AHEAD. ) ;
#94 = APPROVAL_ROLE ( '' ) ;
#95 = PERSON_AND_ORGANIZATION ( #44, #2 ) ;
#96 = PRODUCT_DEFINITION_SHAPE ( 'NONE', 'NONE',  #102 ) ;
#97 = EDGE_CURVE ( 'NONE', #45, #45, #197, .T. ) ;
#98 = ORIENTED_EDGE ( 'NONE', *, *, #70, .F. ) ;
#99 = SHAPE_DEFINITION_REPRESENTATION ( #96, #17 ) ;
#100 = ORIENTED_EDGE ( 'NONE', *, *, #97, .F. ) ;
#101 = ORIENTED_EDGE ( 'NONE', *, *, #76, .F. ) ;
#102 = PRODUCT_DEFINITION ( 'UNKNOWN', '', #148, #116 ) ;
#103 = DIRECTION ( 'NONE',  ( 0.0000000000000000000, 1.000000000000000000, 0.0000000000000000000 ) ) ;
#104 = FACE_OUTER_BOUND ( 'NONE', #54, .T. ) ;
#105 = AXIS2_PLACEMENT_3D ( 'NONE', #193, #156, #85 ) ;
#106 = ADVANCED_FACE ( 'NONE', ( #104 ), #168, .T. ) ;
#107 =( LENGTH_UNIT ( ) NAMED_UNIT ( * ) SI_UNIT ( .MILLI., .METRE. ) );
#108 = CARTESIAN_POINT ( 'NONE',  ( -8.551662891793915461E-31, 2.999519565323715216E-32, -2.449293598294706414E-16 ) ) ;
#109 = CARTESIAN_POINT ( 'NONE',  ( 2.094888803305880013E-13, 1.199807826129473360E-32, 60.00000000000000000 ) ) ;
#110 = CALENDAR_DATE ( 2021, 9, 11 ) ;
#111 = PERSON_AND_ORGANIZATION_ROLE ( 'creator' ) ;
#112 = APPROVAL ( #128, 'UNSPECIFIED' ) ;
#113 = CARTESIAN_POINT ( 'NONE',  ( 0.0000000000000000000, 0.0000000000000000000, 0.0000000000000000000 ) ) ;
#114 = PERSON_AND_ORGANIZATION ( #44, #2 ) ;
#115 = FACE_OUTER_BOUND ( 'NONE', #35, .T. ) ;
#116 = DESIGN_CONTEXT ( 'detailed design', #132, 'design' ) ;
#117 =( GEOMETRIC_REPRESENTATION_CONTEXT ( 3 ) GLOBAL_UNCERTAINTY_ASSIGNED_CONTEXT ( ( #38 ) ) GLOBAL_UNIT_ASSIGNED_CONTEXT ( ( #107, #185, #81 ) ) REPRESENTATION_CONTEXT ( 'NONE', 'WORKASPACE' ) );
#118 = EDGE_LOOP ( 'NONE', ( #71 ) ) ;
#119 = CARTESIAN_POINT ( 'NONE',  ( 1.047444401652940007E-13, 1.999999999999996669, 30.00000000000000000 ) ) ;
#120 = CARTESIAN_POINT ( 'NONE',  ( 2.080922877950507480E-13, -7.298894922918224927E-15, 59.60000000000000142 ) ) ;
#121 = ADVANCED_FACE ( 'NONE', ( #184, #46 ), #170, .T. ) ;
#122 = CARTESIAN_POINT ( 'NONE',  ( 1.710569414459005214E-46, 2.000000000000000000, 0.0000000000000000000 ) ) ;
#123 = CONICAL_SURFACE ( 'NONE', #151, 1.999999999999995337, 0.7853981633974569387 ) ;
#124 = PLANE ( 'NONE',  #155 ) ;
#125 = DIRECTION ( 'NONE',  ( 4.275831445896958607E-31, 1.000000000000000000, 1.224646799147353207E-16 ) ) ;
#126 = PRODUCT ( '44757', '44757', '', ( #47 ) ) ;
#127 = DATE_TIME_ROLE ( 'classification_date' ) ;
#128 = APPROVAL_STATUS ( 'not_yet_approved' ) ;
#129 = COORDINATED_UNIVERSAL_TIME_OFFSET ( 1, 0, .AHEAD. ) ;
#130 = AXIS2_PLACEMENT_3D ( 'NONE', #108, #23, #136 ) ;
#131 = PERSON_AND_ORGANIZATION_ROLE ( 'creator' ) ;
#132 = APPLICATION_CONTEXT ( 'configuration controlled 3d designs of mechanical parts and assemblies' ) ;
#133 = CARTESIAN_POINT ( 'NONE',  ( 2.094888803305879761E-13, -7.347880794884118356E-15, 59.99999999999999289 ) ) ;
#134 = CIRCLE ( 'NONE', #147, 2.000000000000000000 ) ;
#135 = DIRECTION ( 'NONE',  ( 0.0000000000000000000, 1.000000000000000000, 0.0000000000000000000 ) ) ;
#136 = DIRECTION ( 'NONE',  ( 4.275831445896958607E-31, 1.000000000000000000, 1.224646799147353207E-16 ) ) ;
#137 = EDGE_CURVE ( 'NONE', #20, #20, #5, .T. ) ;
#138 = CARTESIAN_POINT ( 'NONE',  ( 0.0000000000000000000, 0.0000000000000000000, 0.0000000000000000000 ) ) ;
#139 = DIRECTION ( 'NONE',  ( -3.491481338843133355E-15, 1.224646799147353207E-16, -1.000000000000000000 ) ) ;
#140 = AXIS2_PLACEMENT_3D ( 'NONE', #109, #198, #125 ) ;
#141 = COORDINATED_UNIVERSAL_TIME_OFFSET ( 1, 0, .AHEAD. ) ;
#142 = APPLICATION_PROTOCOL_DEFINITION ( 'international standard', 'config_control_design', 1994, #201 ) ;
#143 = LOCAL_TIME ( 10, 6, 45.00000000000000000, #141 ) ;
#144 = APPROVAL_STATUS ( 'not_yet_approved' ) ;
#145 = CC_DESIGN_DATE_AND_TIME_ASSIGNMENT ( #64, #127, ( #34 ) ) ;
#146 = APPROVAL_DATE_TIME ( #37, #18 ) ;
#147 = AXIS2_PLACEMENT_3D ( 'NONE', #77, #149, #103 ) ;
#148 = PRODUCT_DEFINITION_FORMATION_WITH_SPECIFIED_SOURCE ( 'ANY', '', #126, .NOT_KNOWN. ) ;
#149 = DIRECTION ( 'NONE',  ( -3.491481338843133355E-15, 1.224646799147353207E-16, -1.000000000000000000 ) ) ;
#150 = ADVANCED_FACE ( 'NONE', ( #172 ), #124, .F. ) ;
#151 = AXIS2_PLACEMENT_3D ( 'NONE', #120, #139, #11 ) ;
#152 = CC_DESIGN_DATE_AND_TIME_ASSIGNMENT ( #161, #30, ( #102 ) ) ;
#153 = DIRECTION ( 'NONE',  ( 3.491481338843133355E-15, -1.224646799147353207E-16, 1.000000000000000000 ) ) ;
#154 = DIRECTION ( 'NONE',  ( -3.491481338843133355E-15, 1.224646799147353207E-16, -1.000000000000000000 ) ) ;
#155 = AXIS2_PLACEMENT_3D ( 'NONE', #90, #153, #171 ) ;
#156 = DIRECTION ( 'NONE',  ( -3.491481338843133355E-15, 1.224646799147353207E-16, -1.000000000000000000 ) ) ;
#157 = FACE_OUTER_BOUND ( 'NONE', #14, .T. ) ;
#158 = PERSON_AND_ORGANIZATION_ROLE ( 'design_owner' ) ;
#159 = APPROVAL_PERSON_ORGANIZATION ( #51, #28, #94 ) ;
#160 = AXIS2_PLACEMENT_3D ( 'NONE', #9, #154, #74 ) ;
#161 = DATE_AND_TIME ( #110, #180 ) ;
#162 = DATE_AND_TIME ( #49, #39 ) ;
#163 = SECURITY_CLASSIFICATION_LEVEL ( 'unclassified' ) ;
#164 = AXIS2_PLACEMENT_3D ( 'NONE', #194, #182, #135 ) ;
#165 = EDGE_LOOP ( 'NONE', ( #3 ) ) ;
#166 = LOCAL_TIME ( 10, 6, 45.00000000000000000, #179 ) ;
#167 = CIRCLE ( 'NONE', #160, 1.999999999999995337 ) ;
#168 = PLANE ( 'NONE',  #192 ) ;
#169 = CC_DESIGN_APPROVAL ( #18, ( #34 ) ) ;
#170 = CYLINDRICAL_SURFACE ( 'NONE', #15, 1.999999999999997335 ) ;
#171 = DIRECTION ( 'NONE',  ( -4.275831445896958607E-31, -1.000000000000000000, -1.224646799147353207E-16 ) ) ;
#172 = FACE_OUTER_BOUND ( 'NONE', #165, .T. ) ;
#173 = DIRECTION ( 'NONE',  ( 4.275831445896959482E-31, 1.000000000000000000, 1.224646799147353454E-16 ) ) ;
#174 = APPROVAL_ROLE ( '' ) ;
#175 = APPROVAL_DATE_TIME ( #162, #28 ) ;
#176 = CC_DESIGN_APPROVAL ( #112, ( #148 ) ) ;
#177 = CC_DESIGN_PERSON_AND_ORGANIZATION_ASSIGNMENT ( #68, #158, ( #126 ) ) ;
#178 = ORIENTED_EDGE ( 'NONE', *, *, #137, .T. ) ;
#179 = COORDINATED_UNIVERSAL_TIME_OFFSET ( 1, 0, .AHEAD. ) ;
#180 = LOCAL_TIME ( 10, 6, 45.00000000000000000, #188 ) ;
#181 = CC_DESIGN_PERSON_AND_ORGANIZATION_ASSIGNMENT ( #186, #78, ( #34 ) ) ;
#182 = DIRECTION ( 'NONE',  ( -3.491481338843133355E-15, 1.224646799147353207E-16, -1.000000000000000000 ) ) ;
#183 = PLANE ( 'NONE',  #203 ) ;
#184 = FACE_OUTER_BOUND ( 'NONE', #56, .T. ) ;
#185 =( NAMED_UNIT ( * ) PLANE_ANGLE_UNIT ( ) SI_UNIT ( $, .RADIAN. ) );
#186 = PERSON_AND_ORGANIZATION ( #44, #2 ) ;
#187 = PERSON_AND_ORGANIZATION ( #44, #2 ) ;
#188 = COORDINATED_UNIVERSAL_TIME_OFFSET ( 1, 0, .AHEAD. ) ;
#189 = ADVANCED_FACE ( 'NONE', ( #157 ), #183, .T. ) ;
#190 = EDGE_LOOP ( 'NONE', ( #100 ) ) ;
#191 = CARTESIAN_POINT ( 'NONE',  ( 1.047444401652940007E-13, 1.999999999999996669, 30.00000000000000000 ) ) ;
#192 = AXIS2_PLACEMENT_3D ( 'NONE', #88, #61, #10 ) ;
#193 = CARTESIAN_POINT ( 'NONE',  ( 0.0000000000000000000, 0.0000000000000000000, 0.0000000000000000000 ) ) ;
#194 = CARTESIAN_POINT ( 'NONE',  ( 1.047444401652940007E-13, -3.673940397442059178E-15, 30.00000000000000000 ) ) ;
#195 = DIRECTION ( 'NONE',  ( -3.491481338843133355E-15, 1.224646799147353207E-16, -1.000000000000000000 ) ) ;
#196 = CC_DESIGN_PERSON_AND_ORGANIZATION_ASSIGNMENT ( #95, #33, ( #148 ) ) ;
#197 = CIRCLE ( 'NONE', #4, 1.599999999999997646 ) ;
#198 = DIRECTION ( 'NONE',  ( -3.491481338843133355E-15, 1.224646799147353207E-16, -1.000000000000000000 ) ) ;
#199 = CALENDAR_DATE ( 2021, 9, 11 ) ;
#200 = PERSON_AND_ORGANIZATION ( #44, #2 ) ;
#201 = APPLICATION_CONTEXT ( 'configuration controlled 3d designs of mechanical parts and assemblies' ) ;
#202 = DIRECTION ( 'NONE',  ( 0.0000000000000000000, 0.0000000000000000000, 1.000000000000000000 ) ) ;
#203 = AXIS2_PLACEMENT_3D ( 'NONE', #8, #7, #89 ) ;
ENDSEC;
END-ISO-10303-21;
