ISO-10303-21;
HEADER;
FILE_DESCRIPTION (( 'STEP AP203' ),
    '1' );
FILE_NAME ('44756.step',
    '2021-11-09T09:06:45',
    ( '' ),
    ( '' ),
    'SwSTEP 2.0',
    'SolidWorks 2019',
    '' );
FILE_SCHEMA (( 'CONFIG_CONTROL_DESIGN' ));
ENDSEC;

DATA;
#1 = PRODUCT_DEFINITION_SHAPE ( 'NONE', 'NONE',  #104 ) ;
#2 = APPROVAL_PERSON_ORGANIZATION ( #102, #141, #158 ) ;
#3 = PLANE ( 'NONE',  #186 ) ;
#4 = DIRECTION ( 'NONE',  ( 4.275831445896958607E-31, 1.000000000000000000, 1.224646799147353207E-16 ) ) ;
#5 = VERTEX_POINT ( 'NONE', #152 ) ;
#6 =( GEOMETRIC_REPRESENTATION_CONTEXT ( 3 ) GLOBAL_UNCERTAINTY_ASSIGNED_CONTEXT ( ( #170 ) ) GLOBAL_UNIT_ASSIGNED_CONTEXT ( ( #21, #72, #85 ) ) REPRESENTATION_CONTEXT ( 'NONE', 'WORKASPACE' ) );
#7 = CARTESIAN_POINT ( 'NONE',  ( 0.0000000000000000000, 0.0000000000000000000, 0.0000000000000000000 ) ) ;
#8 = CALENDAR_DATE ( 2021, 9, 11 ) ;
#9 = EDGE_LOOP ( 'NONE', ( #145 ) ) ;
#10 = COORDINATED_UNIVERSAL_TIME_OFFSET ( 1, 0, .AHEAD. ) ;
#11 = AXIS2_PLACEMENT_3D ( 'NONE', #49, #162, #16 ) ;
#12 = COORDINATED_UNIVERSAL_TIME_OFFSET ( 1, 0, .AHEAD. ) ;
#13 = ORIENTED_EDGE ( 'NONE', *, *, #33, .T. ) ;
#14 = PERSON_AND_ORGANIZATION_ROLE ( 'creator' ) ;
#15 = ORIENTED_EDGE ( 'NONE', *, *, #71, .T. ) ;
#16 = DIRECTION ( 'NONE',  ( 4.275831445896958607E-31, 1.000000000000000000, 1.224646799147353207E-16 ) ) ;
#17 = CC_DESIGN_APPROVAL ( #141, ( #104 ) ) ;
#18 = FACE_OUTER_BOUND ( 'NONE', #9, .T. ) ;
#19 = CARTESIAN_POINT ( 'NONE',  ( 0.0000000000000000000, 0.0000000000000000000, 0.0000000000000000000 ) ) ;
#20 = DIRECTION ( 'NONE',  ( -3.491481338843133355E-15, 1.224646799147353207E-16, -1.000000000000000000 ) ) ;
#21 =( LENGTH_UNIT ( ) NAMED_UNIT ( * ) SI_UNIT ( .MILLI., .METRE. ) );
#22 = VERTEX_POINT ( 'NONE', #82 ) ;
#23 = APPROVAL_STATUS ( 'not_yet_approved' ) ;
#24 = PERSON_AND_ORGANIZATION_ROLE ( 'creator' ) ;
#25 = APPROVAL_ROLE ( '' ) ;
#26 = EDGE_LOOP ( 'NONE', ( #15 ) ) ;
#27 = CIRCLE ( 'NONE', #97, 1.499999999999999778 ) ;
#28 = COORDINATED_UNIVERSAL_TIME_OFFSET ( 1, 0, .AHEAD. ) ;
#29 = CARTESIAN_POINT ( 'NONE',  ( 1.047444401652940007E-13, 1.124819836996387869E-32, 30.00000000000000000 ) ) ;
#30 = DIRECTION ( 'NONE',  ( 3.491481338843133355E-15, -1.224646799147353207E-16, 1.000000000000000000 ) ) ;
#31 = LOCAL_TIME ( 10, 6, 45.00000000000000000, #10 ) ;
#32 = DIRECTION ( 'NONE',  ( -3.491481338843133355E-15, 1.224646799147353207E-16, -1.000000000000000000 ) ) ;
#33 = EDGE_CURVE ( 'NONE', #136, #136, #27, .T. ) ;
#34 = DIRECTION ( 'NONE',  ( 0.0000000000000000000, 1.000000000000000000, 0.0000000000000000000 ) ) ;
#35 = CC_DESIGN_DATE_AND_TIME_ASSIGNMENT ( #46, #90, ( #104 ) ) ;
#36 = CARTESIAN_POINT ( 'NONE',  ( -6.413747168845437034E-31, 2.249639673992785864E-32, -1.836970198721029441E-16 ) ) ;
#37 = CIRCLE ( 'NONE', #87, 1.199999999999996625 ) ;
#38 = DIRECTION ( 'NONE',  ( -4.275831445896958607E-31, -1.000000000000000000, -1.224646799147353207E-16 ) ) ;
#39 = EDGE_CURVE ( 'NONE', #22, #22, #150, .T. ) ;
#40 = PRODUCT_RELATED_PRODUCT_CATEGORY ( 'detail', '', ( #83 ) ) ;
#41 = APPLICATION_PROTOCOL_DEFINITION ( 'international standard', 'config_control_design', 1994, #113 ) ;
#42 = PERSON ( 'UNSPECIFIED', 'UNSPECIFIED', 'UNSPECIFIED', ('UNSPECIFIED'), ('UNSPECIFIED'), ('UNSPECIFIED') ) ;
#43 = EDGE_CURVE ( 'NONE', #5, #5, #84, .T. ) ;
#44 = AXIS2_PLACEMENT_3D ( 'NONE', #133, #147, #131 ) ;
#45 = CC_DESIGN_PERSON_AND_ORGANIZATION_ASSIGNMENT ( #47, #24, ( #104 ) ) ;
#46 = DATE_AND_TIME ( #187, #135 ) ;
#47 = PERSON_AND_ORGANIZATION ( #42, #52 ) ;
#48 = FACE_OUTER_BOUND ( 'NONE', #26, .T. ) ;
#49 = CARTESIAN_POINT ( 'NONE',  ( -3.206873584422718517E-31, 1.124819836996392932E-32, -9.184850993605147205E-17 ) ) ;
#50 = EDGE_LOOP ( 'NONE', ( #130 ) ) ;
#51 = LOCAL_TIME ( 10, 6, 45.00000000000000000, #12 ) ;
#52 = ORGANIZATION ( 'UNSPECIFIED', 'UNSPECIFIED', '' ) ;
#53 = DIRECTION ( 'NONE',  ( 0.0000000000000000000, 0.0000000000000000000, 1.000000000000000000 ) ) ;
#54 = AXIS2_PLACEMENT_3D ( 'NONE', #19, #63, #4 ) ;
#55 = SECURITY_CLASSIFICATION ( '', '', #139 ) ;
#56 = APPROVAL ( #190, 'UNSPECIFIED' ) ;
#57 = APPROVAL_DATE_TIME ( #112, #185 ) ;
#58 = COORDINATED_UNIVERSAL_TIME_OFFSET ( 1, 0, .AHEAD. ) ;
#59 = LOCAL_TIME ( 10, 6, 45.00000000000000000, #58 ) ;
#60 = CALENDAR_DATE ( 2021, 9, 11 ) ;
#61 = ORIENTED_EDGE ( 'NONE', *, *, #39, .T. ) ;
#62 = CC_DESIGN_PERSON_AND_ORGANIZATION_ASSIGNMENT ( #157, #142, ( #55 ) ) ;
#63 = DIRECTION ( 'NONE',  ( -3.491481338843133355E-15, 1.224646799147353207E-16, -1.000000000000000000 ) ) ;
#64 = CYLINDRICAL_SURFACE ( 'NONE', #54, 1.499999999999999556 ) ;
#65 = AXIS2_PLACEMENT_3D ( 'NONE', #36, #202, #165 ) ;
#66 = CARTESIAN_POINT ( 'NONE',  ( 1.047444401652940007E-13, 1.124819836996387869E-32, 30.00000000000000000 ) ) ;
#67 = DIRECTION ( 'NONE',  ( -3.491481338843133355E-15, 1.224646799147353207E-16, -1.000000000000000000 ) ) ;
#68 = PERSON_AND_ORGANIZATION ( #42, #52 ) ;
#69 = APPLICATION_CONTEXT ( 'configuration controlled 3d designs of mechanical parts and assemblies' ) ;
#70 = CARTESIAN_POINT ( 'NONE',  ( 2.094888803305880013E-13, 1.199999999999989297, 60.00000000000000000 ) ) ;
#71 = EDGE_CURVE ( 'NONE', #153, #153, #106, .T. ) ;
#72 =( NAMED_UNIT ( * ) PLANE_ANGLE_UNIT ( ) SI_UNIT ( $, .RADIAN. ) );
#73 = DATE_TIME_ROLE ( 'classification_date' ) ;
#74 = CALENDAR_DATE ( 2021, 9, 11 ) ;
#75 = CONICAL_SURFACE ( 'NONE', #193, 1.499999999999998224, 0.7853981633974598253 ) ;
#76 = EDGE_CURVE ( 'NONE', #195, #195, #37, .T. ) ;
#77 = PERSON_AND_ORGANIZATION ( #42, #52 ) ;
#78 = FACE_OUTER_BOUND ( 'NONE', #175, .T. ) ;
#79 = PLANE ( 'NONE',  #176 ) ;
#80 = DIRECTION ( 'NONE',  ( -3.491481338843133355E-15, 1.224646799147353207E-16, -1.000000000000000000 ) ) ;
#81 = DIRECTION ( 'NONE',  ( 0.0000000000000000000, 1.000000000000000000, 0.0000000000000000000 ) ) ;
#82 = CARTESIAN_POINT ( 'NONE',  ( -8.552847072295026068E-47, 1.499999999999999556, 0.0000000000000000000 ) ) ;
#83 = PRODUCT ( '44756', '44756', '', ( #121 ) ) ;
#84 = CIRCLE ( 'NONE', #189, 1.499999999999998224 ) ;
#85 =( NAMED_UNIT ( * ) SI_UNIT ( $, .STERADIAN. ) SOLID_ANGLE_UNIT ( ) );
#86 = MANIFOLD_SOLID_BREP ( 'Corps-Déplacer/Copier1[2]', #105 ) ;
#87 = AXIS2_PLACEMENT_3D ( 'NONE', #178, #20, #34 ) ;
#88 = ADVANCED_FACE ( 'NONE', ( #98, #168 ), #75, .T. ) ;
#89 = PERSON_AND_ORGANIZATION ( #42, #52 ) ;
#90 = DATE_TIME_ROLE ( 'creation_date' ) ;
#91 = EDGE_LOOP ( 'NONE', ( #110 ) ) ;
#92 = PERSON_AND_ORGANIZATION_ROLE ( 'design_supplier' ) ;
#93 = EDGE_LOOP ( 'NONE', ( #192 ) ) ;
#94 = DATE_AND_TIME ( #60, #59 ) ;
#95 = PLANE ( 'NONE',  #11 ) ;
#96 = DIRECTION ( 'NONE',  ( -3.491481338843133355E-15, 1.224646799147353207E-16, -1.000000000000000000 ) ) ;
#97 = AXIS2_PLACEMENT_3D ( 'NONE', #183, #67, #119 ) ;
#98 = FACE_BOUND ( 'NONE', #93, .T. ) ;
#99 = FACE_OUTER_BOUND ( 'NONE', #91, .T. ) ;
#100 = CARTESIAN_POINT ( 'NONE',  ( 2.084414359289350802E-13, -7.311141390909699073E-15, 59.70000000000000284 ) ) ;
#101 = ADVANCED_FACE ( 'NONE', ( #182, #99 ), #64, .T. ) ;
#102 = PERSON_AND_ORGANIZATION ( #42, #52 ) ;
#103 = DIRECTION ( 'NONE',  ( 3.491481338843133355E-15, -1.224646799147353207E-16, 1.000000000000000000 ) ) ;
#104 = PRODUCT_DEFINITION ( 'UNKNOWN', '', #164, #120 ) ;
#105 = CLOSED_SHELL ( 'NONE', ( #140, #101, #194 ) ) ;
#106 = CIRCLE ( 'NONE', #171, 1.499999999999999778 ) ;
#107 = ORIENTED_EDGE ( 'NONE', *, *, #76, .F. ) ;
#108 = CC_DESIGN_APPROVAL ( #185, ( #164 ) ) ;
#109 = ADVANCED_FACE ( 'NONE', ( #115, #203 ), #191, .T. ) ;
#110 = ORIENTED_EDGE ( 'NONE', *, *, #39, .F. ) ;
#111 = PERSON_AND_ORGANIZATION ( #42, #52 ) ;
#112 = DATE_AND_TIME ( #74, #31 ) ;
#113 = APPLICATION_CONTEXT ( 'configuration controlled 3d designs of mechanical parts and assemblies' ) ;
#114 = CARTESIAN_POINT ( 'NONE',  ( 1.047444401652940007E-13, -3.673940397442059178E-15, 30.00000000000000000 ) ) ;
#115 = FACE_OUTER_BOUND ( 'NONE', #126, .T. ) ;
#116 = DIRECTION ( 'NONE',  ( 0.0000000000000000000, 1.000000000000000000, 0.0000000000000000000 ) ) ;
#117 = CLOSED_SHELL ( 'NONE', ( #123, #109, #88, #156 ) ) ;
#118 = DIRECTION ( 'NONE',  ( -4.275831445896958607E-31, -1.000000000000000000, -1.224646799147353207E-16 ) ) ;
#119 = DIRECTION ( 'NONE',  ( 0.0000000000000000000, 1.000000000000000000, 0.0000000000000000000 ) ) ;
#120 = DESIGN_CONTEXT ( 'detailed design', #113, 'design' ) ;
#121 = MECHANICAL_CONTEXT ( 'NONE', #69, 'mechanical' ) ;
#122 = APPROVAL_DATE_TIME ( #188, #56 ) ;
#123 = ADVANCED_FACE ( 'NONE', ( #48 ), #177, .F. ) ;
#124 = COORDINATED_UNIVERSAL_TIME_OFFSET ( 1, 0, .AHEAD. ) ;
#125 = APPROVAL_PERSON_ORGANIZATION ( #77, #185, #25 ) ;
#126 = EDGE_LOOP ( 'NONE', ( #161 ) ) ;
#127 = APPROVAL_ROLE ( '' ) ;
#128 = CALENDAR_DATE ( 2021, 9, 11 ) ;
#129 = DIRECTION ( 'NONE',  ( -3.491481338843133355E-15, 1.224646799147353207E-16, -1.000000000000000000 ) ) ;
#130 = ORIENTED_EDGE ( 'NONE', *, *, #71, .F. ) ;
#131 = DIRECTION ( 'NONE',  ( 4.275831445896958607E-31, 1.000000000000000000, 1.224646799147353454E-16 ) ) ;
#132 = CC_DESIGN_PERSON_AND_ORGANIZATION_ASSIGNMENT ( #111, #92, ( #164 ) ) ;
#133 = CARTESIAN_POINT ( 'NONE',  ( 0.0000000000000000000, 0.0000000000000000000, 0.0000000000000000000 ) ) ;
#134 = CARTESIAN_POINT ( 'NONE',  ( 1.047444401652940007E-13, 1.499999999999996225, 30.00000000000000000 ) ) ;
#135 = LOCAL_TIME ( 10, 6, 45.00000000000000000, #124 ) ;
#136 = VERTEX_POINT ( 'NONE', #173 ) ;
#137 = CC_DESIGN_SECURITY_CLASSIFICATION ( #55, ( #164 ) ) ;
#138 = APPROVAL_STATUS ( 'not_yet_approved' ) ;
#139 = SECURITY_CLASSIFICATION_LEVEL ( 'unclassified' ) ;
#140 = ADVANCED_FACE ( 'NONE', ( #167 ), #95, .T. ) ;
#141 = APPROVAL ( #23, 'UNSPECIFIED' ) ;
#142 = PERSON_AND_ORGANIZATION_ROLE ( 'classification_officer' ) ;
#143 = ORIENTED_EDGE ( 'NONE', *, *, #43, .F. ) ;
#144 = SHAPE_DEFINITION_REPRESENTATION ( #1, #201 ) ;
#145 = ORIENTED_EDGE ( 'NONE', *, *, #33, .F. ) ;
#146 = CARTESIAN_POINT ( 'NONE',  ( 2.094888803305880013E-13, 8.998558695971011538E-33, 60.00000000000000000 ) ) ;
#147 = DIRECTION ( 'NONE',  ( -3.491481338843133355E-15, 1.224646799147353207E-16, -1.000000000000000000 ) ) ;
#148 = CC_DESIGN_PERSON_AND_ORGANIZATION_ASSIGNMENT ( #89, #14, ( #164 ) ) ;
#149 = EDGE_LOOP ( 'NONE', ( #143 ) ) ;
#150 = CIRCLE ( 'NONE', #65, 1.499999999999999556 ) ;
#151 = DIRECTION ( 'NONE',  ( 0.0000000000000000000, 1.000000000000000000, 0.0000000000000000000 ) ) ;
#152 = CARTESIAN_POINT ( 'NONE',  ( 2.084414359289350802E-13, 1.499999999999990896, 59.70000000000000284 ) ) ;
#153 = VERTEX_POINT ( 'NONE', #134 ) ;
#154 = MANIFOLD_SOLID_BREP ( 'Corps-Déplacer/Copier1[1]', #117 ) ;
#155 = AXIS2_PLACEMENT_3D ( 'NONE', #29, #30, #118 ) ;
#156 = ADVANCED_FACE ( 'NONE', ( #78 ), #3, .F. ) ;
#157 = PERSON_AND_ORGANIZATION ( #42, #52 ) ;
#158 = APPROVAL_ROLE ( '' ) ;
#159 = EDGE_LOOP ( 'NONE', ( #61 ) ) ;
#160 = PERSON_AND_ORGANIZATION ( #42, #52 ) ;
#161 = ORIENTED_EDGE ( 'NONE', *, *, #43, .T. ) ;
#162 = DIRECTION ( 'NONE',  ( -3.491481338843133355E-15, 1.224646799147353207E-16, -1.000000000000000000 ) ) ;
#163 = DIRECTION ( 'NONE',  ( 4.275831445896958607E-31, 1.000000000000000000, 1.224646799147353207E-16 ) ) ;
#164 = PRODUCT_DEFINITION_FORMATION_WITH_SPECIFIED_SOURCE ( 'ANY', '', #83, .NOT_KNOWN. ) ;
#165 = DIRECTION ( 'NONE',  ( 4.275831445896958607E-31, 1.000000000000000000, 1.224646799147353207E-16 ) ) ;
#166 = CC_DESIGN_PERSON_AND_ORGANIZATION_ASSIGNMENT ( #68, #169, ( #83 ) ) ;
#167 = FACE_OUTER_BOUND ( 'NONE', #159, .T. ) ;
#168 = FACE_OUTER_BOUND ( 'NONE', #149, .T. ) ;
#169 = PERSON_AND_ORGANIZATION_ROLE ( 'design_owner' ) ;
#170 = UNCERTAINTY_MEASURE_WITH_UNIT (LENGTH_MEASURE( 1.000000000000000082E-05 ), #21, 'distance_accuracy_value', 'NONE');
#171 = AXIS2_PLACEMENT_3D ( 'NONE', #114, #129, #116 ) ;
#172 = APPLICATION_PROTOCOL_DEFINITION ( 'international standard', 'config_control_design', 1994, #69 ) ;
#173 = CARTESIAN_POINT ( 'NONE',  ( 1.047444401652940007E-13, 1.499999999999996225, 30.00000000000000000 ) ) ;
#174 = LOCAL_TIME ( 10, 6, 45.00000000000000000, #28 ) ;
#175 = EDGE_LOOP ( 'NONE', ( #107 ) ) ;
#176 = AXIS2_PLACEMENT_3D ( 'NONE', #66, #103, #38 ) ;
#177 = PLANE ( 'NONE',  #155 ) ;
#178 = CARTESIAN_POINT ( 'NONE',  ( 2.094888803305880013E-13, -7.347880794884118356E-15, 60.00000000000000000 ) ) ;
#179 = CARTESIAN_POINT ( 'NONE',  ( 2.084414359289350802E-13, -7.311141390909699073E-15, 59.70000000000000284 ) ) ;
#180 = CC_DESIGN_DATE_AND_TIME_ASSIGNMENT ( #94, #73, ( #55 ) ) ;
#181 = APPROVAL_PERSON_ORGANIZATION ( #160, #56, #127 ) ;
#182 = FACE_OUTER_BOUND ( 'NONE', #200, .T. ) ;
#183 = CARTESIAN_POINT ( 'NONE',  ( 1.047444401652940007E-13, -3.673940397442059178E-15, 30.00000000000000000 ) ) ;
#184 = DIRECTION ( 'NONE',  ( 1.000000000000000000, 0.0000000000000000000, 0.0000000000000000000 ) ) ;
#185 = APPROVAL ( #138, 'UNSPECIFIED' ) ;
#186 = AXIS2_PLACEMENT_3D ( 'NONE', #146, #96, #163 ) ;
#187 = CALENDAR_DATE ( 2021, 9, 11 ) ;
#188 = DATE_AND_TIME ( #128, #51 ) ;
#189 = AXIS2_PLACEMENT_3D ( 'NONE', #100, #80, #81 ) ;
#190 = APPROVAL_STATUS ( 'not_yet_approved' ) ;
#191 = CYLINDRICAL_SURFACE ( 'NONE', #44, 1.499999999999999112 ) ;
#192 = ORIENTED_EDGE ( 'NONE', *, *, #76, .T. ) ;
#193 = AXIS2_PLACEMENT_3D ( 'NONE', #179, #32, #151 ) ;
#194 = ADVANCED_FACE ( 'NONE', ( #18 ), #79, .T. ) ;
#195 = VERTEX_POINT ( 'NONE', #70 ) ;
#196 = CC_DESIGN_APPROVAL ( #56, ( #55 ) ) ;
#197 = DATE_AND_TIME ( #8, #174 ) ;
#198 = APPROVAL_DATE_TIME ( #197, #141 ) ;
#199 = AXIS2_PLACEMENT_3D ( 'NONE', #7, #53, #184 ) ;
#200 = EDGE_LOOP ( 'NONE', ( #13 ) ) ;
#201 = ADVANCED_BREP_SHAPE_REPRESENTATION ( '44756', ( #154, #86, #199 ), #6 ) ;
#202 = DIRECTION ( 'NONE',  ( -3.491481338843133355E-15, 1.224646799147353207E-16, -1.000000000000000000 ) ) ;
#203 = FACE_OUTER_BOUND ( 'NONE', #50, .T. ) ;
ENDSEC;
END-ISO-10303-21;
