ISO-10303-21;
HEADER;
FILE_DESCRIPTION (( 'STEP AP203' ),
    '1' );
FILE_NAME ('44585.step',
    '2021-10-13T11:36:24',
    ( '' ),
    ( '' ),
    'SwSTEP 2.0',
    'SolidWorks 2019',
    '' );
FILE_SCHEMA (( 'CONFIG_CONTROL_DESIGN' ));
ENDSEC;

DATA;
#1 = DIRECTION ( 'NONE',  ( -3.491481338843133355E-15, 1.224646799147353207E-16, -1.000000000000000000 ) ) ;
#2 = FACE_OUTER_BOUND ( 'NONE', #246, .T. ) ;
#3 = AXIS2_PLACEMENT_3D ( 'NONE', #195, #247, #233 ) ;
#4 = CARTESIAN_POINT ( 'NONE',  ( 2.758270257686075477E-13, -9.674709713264090904E-15, 79.00000000000000000 ) ) ;
#5 = CIRCLE ( 'NONE', #155, 4.000000000000001776 ) ;
#6 = CYLINDRICAL_SURFACE ( 'NONE', #53, 3.175000000000005151 ) ;
#7 = FACE_OUTER_BOUND ( 'NONE', #260, .T. ) ;
#8 = EDGE_CURVE ( 'NONE', #135, #135, #50, .T. ) ;
#9 = DIRECTION ( 'NONE',  ( -3.491481338843133355E-15, 4.327174794786742882E-16, -1.000000000000000000 ) ) ;
#10 = DIRECTION ( 'NONE',  ( 0.0000000000000000000, 0.0000000000000000000, 1.000000000000000000 ) ) ;
#11 = PRODUCT_RELATED_PRODUCT_CATEGORY ( 'detail', '', ( #173 ) ) ;
#12 = CARTESIAN_POINT ( 'NONE',  ( 1.187103655206665341E-13, 3.174999999999995381, 34.00000000000000000 ) ) ;
#13 = DIRECTION ( 'NONE',  ( 1.000000000000000000, 0.0000000000000000000, 0.0000000000000000000 ) ) ;
#14 = AXIS2_PLACEMENT_3D ( 'NONE', #189, #196, #230 ) ;
#15 = APPROVAL_DATE_TIME ( #39, #257 ) ;
#16 = DATE_AND_TIME ( #98, #109 ) ;
#17 = APPROVAL_STATUS ( 'not_yet_approved' ) ;
#18 = DESIGN_CONTEXT ( 'detailed design', #86, 'design' ) ;
#19 = APPROVAL_STATUS ( 'not_yet_approved' ) ;
#20 = EDGE_LOOP ( 'NONE', ( #208 ) ) ;
#21 = CC_DESIGN_DATE_AND_TIME_ASSIGNMENT ( #57, #259, ( #131 ) ) ;
#22 = DATE_AND_TIME ( #204, #148 ) ;
#23 = CIRCLE ( 'NONE', #51, 3.175000000000005151 ) ;
#24 = FACE_OUTER_BOUND ( 'NONE', #225, .T. ) ;
#25 = MANIFOLD_SOLID_BREP ( 'Corps-Déplacer/Copier1[2]', #170 ) ;
#26 = FACE_OUTER_BOUND ( 'NONE', #144, .T. ) ;
#27 = DIRECTION ( 'NONE',  ( -3.851859888774479151E-31, -1.000000000000000000, -1.084202172485506529E-16 ) ) ;
#28 = APPROVAL_PERSON_ORGANIZATION ( #207, #166, #160 ) ;
#29 = DIRECTION ( 'NONE',  ( -3.491481338843133355E-15, 1.224646799147353207E-16, -1.000000000000000000 ) ) ;
#30 = VERTEX_POINT ( 'NONE', #12 ) ;
#31 = PERSON_AND_ORGANIZATION ( #113, #76 ) ;
#32 = DIRECTION ( 'NONE',  ( -3.491481338843133355E-15, 1.224646799147353207E-16, -1.000000000000000000 ) ) ;
#33 = VERTEX_POINT ( 'NONE', #132 ) ;
#34 = APPROVAL ( #17, 'UNSPECIFIED' ) ;
#35 = ORIENTED_EDGE ( 'NONE', *, *, #8, .F. ) ;
#36 = PERSON_AND_ORGANIZATION ( #113, #76 ) ;
#37 = APPROVAL_PERSON_ORGANIZATION ( #256, #257, #184 ) ;
#38 = EDGE_LOOP ( 'NONE', ( #87 ) ) ;
#39 = DATE_AND_TIME ( #209, #241 ) ;
#40 = FACE_OUTER_BOUND ( 'NONE', #206, .T. ) ;
#41 = DIRECTION ( 'NONE',  ( -3.491481338843133355E-15, 1.224646799147353207E-16, -1.000000000000000000 ) ) ;
#42 = EDGE_CURVE ( 'NONE', #138, #138, #119, .T. ) ;
#43 = DIRECTION ( 'NONE',  ( -3.491481338843133355E-15, 1.224646799147353207E-16, -1.000000000000000000 ) ) ;
#44 = FACE_OUTER_BOUND ( 'NONE', #187, .T. ) ;
#45 = ADVANCED_FACE ( 'NONE', ( #2 ), #236, .F. ) ;
#46 = DIRECTION ( 'NONE',  ( 3.491481338843133355E-15, -1.224646799147353207E-16, 1.000000000000000000 ) ) ;
#47 = PRODUCT_DEFINITION_FORMATION_WITH_SPECIFIED_SOURCE ( 'ANY', '', #173, .NOT_KNOWN. ) ;
#48 = CARTESIAN_POINT ( 'NONE',  ( 8.379555213223520053E-14, 2.999519565323707552E-32, 24.00000000000000000 ) ) ;
#49 = CARTESIAN_POINT ( 'NONE',  ( 2.758270257686075477E-13, 3.199999999999992628, 79.00000000000000000 ) ) ;
#50 = CIRCLE ( 'NONE', #239, 3.200000000000002398 ) ;
#51 = AXIS2_PLACEMENT_3D ( 'NONE', #112, #252, #89 ) ;
#52 = PERSON_AND_ORGANIZATION_ROLE ( 'design_owner' ) ;
#53 = AXIS2_PLACEMENT_3D ( 'NONE', #214, #174, #234 ) ;
#54 = TOROIDAL_SURFACE ( 'NONE', #100, 4.175000000000009592, 0.9999999999999991118 ) ;
#55 = ORIENTED_EDGE ( 'NONE', *, *, #183, .F. ) ;
#56 = ADVANCED_FACE ( 'NONE', ( #44, #150 ), #6, .T. ) ;
#57 = DATE_AND_TIME ( #96, #157 ) ;
#58 = DIRECTION ( 'NONE',  ( 4.275831445896958607E-31, 1.000000000000000000, 1.224646799147353207E-16 ) ) ;
#59 = EDGE_CURVE ( 'NONE', #30, #30, #67, .T. ) ;
#60 = CARTESIAN_POINT ( 'NONE',  ( 0.0000000000000000000, 0.0000000000000000000, 0.0000000000000000000 ) ) ;
#61 = AXIS2_PLACEMENT_3D ( 'NONE', #48, #177, #133 ) ;
#62 = FACE_OUTER_BOUND ( 'NONE', #262, .T. ) ;
#63 = ORIENTED_EDGE ( 'NONE', *, *, #223, .T. ) ;
#64 = EDGE_CURVE ( 'NONE', #108, #108, #5, .T. ) ;
#65 = ORIENTED_EDGE ( 'NONE', *, *, #42, .T. ) ;
#66 = ADVANCED_BREP_SHAPE_REPRESENTATION ( '44585', ( #205, #25, #171 ), #197 ) ;
#67 = CIRCLE ( 'NONE', #240, 3.175000000000010481 ) ;
#68 = CARTESIAN_POINT ( 'NONE',  ( 1.246350291606556175E-13, -4.000000000000014211, 35.69689110867542325 ) ) ;
#69 = CONICAL_SURFACE ( 'NONE', #222, 3.200000000000002398, 0.7853981633974423948 ) ;
#70 = DIRECTION ( 'NONE',  ( -4.275831445896958607E-31, -1.000000000000000000, -1.224646799147353207E-16 ) ) ;
#71 = CARTESIAN_POINT ( 'NONE',  ( 2.730338406975330410E-13, 3.999999999999992450, 78.19999999999998863 ) ) ;
#72 = FACE_OUTER_BOUND ( 'NONE', #143, .T. ) ;
#73 = APPLICATION_PROTOCOL_DEFINITION ( 'international standard', 'config_control_design', 1994, #125 ) ;
#74 = COORDINATED_UNIVERSAL_TIME_OFFSET ( 1, 0, .AHEAD. ) ;
#75 = APPROVAL_ROLE ( '' ) ;
#76 = ORGANIZATION ( 'UNSPECIFIED', 'UNSPECIFIED', '' ) ;
#77 = ORIENTED_EDGE ( 'NONE', *, *, #183, .T. ) ;
#78 = APPLICATION_PROTOCOL_DEFINITION ( 'international standard', 'config_control_design', 1994, #86 ) ;
#79 = APPROVAL_DATE_TIME ( #16, #34 ) ;
#80 = ORIENTED_EDGE ( 'NONE', *, *, #237, .T. ) ;
#81 = EDGE_CURVE ( 'NONE', #175, #175, #193, .T. ) ;
#82 = EDGE_LOOP ( 'NONE', ( #245 ) ) ;
#83 = CARTESIAN_POINT ( 'NONE',  ( 1.246350291606556175E-13, -1.544666874577072897E-14, 35.69689110867542325 ) ) ;
#84 = AXIS2_PLACEMENT_3D ( 'NONE', #93, #91, #70 ) ;
#85 = CARTESIAN_POINT ( 'NONE',  ( 1.187103655206665341E-13, -1.474514954580286030E-14, 34.00000000000000000 ) ) ;
#86 = APPLICATION_CONTEXT ( 'configuration controlled 3d designs of mechanical parts and assemblies' ) ;
#87 = ORIENTED_EDGE ( 'NONE', *, *, #42, .F. ) ;
#88 = FACE_OUTER_BOUND ( 'NONE', #163, .T. ) ;
#89 = DIRECTION ( 'NONE',  ( -4.852736867747358185E-31, -1.000000000000000000, -1.365923996832129391E-16 ) ) ;
#90 = AXIS2_PLACEMENT_3D ( 'NONE', #251, #32, #111 ) ;
#91 = DIRECTION ( 'NONE',  ( 3.491481338843133355E-15, -1.224646799147353207E-16, 1.000000000000000000 ) ) ;
#92 = CYLINDRICAL_SURFACE ( 'NONE', #243, 3.175000000000005151 ) ;
#93 = CARTESIAN_POINT ( 'NONE',  ( 8.379555213223520053E-14, 2.999519565323707552E-32, 24.00000000000000000 ) ) ;
#94 = ADVANCED_FACE ( 'NONE', ( #40 ), #211, .T. ) ;
#95 = COORDINATED_UNIVERSAL_TIME_OFFSET ( 1, 0, .AHEAD. ) ;
#96 = CALENDAR_DATE ( 2021, 13, 10 ) ;
#97 = PERSON_AND_ORGANIZATION_ROLE ( 'creator' ) ;
#98 = CALENDAR_DATE ( 2021, 13, 10 ) ;
#99 = ORIENTED_EDGE ( 'NONE', *, *, #237, .F. ) ;
#100 = AXIS2_PLACEMENT_3D ( 'NONE', #85, #172, #198 ) ;
#101 = AXIS2_PLACEMENT_3D ( 'NONE', #83, #169, #249 ) ;
#102 = CARTESIAN_POINT ( 'NONE',  ( 2.758270257686075477E-13, 2.399615652258959583E-32, 79.00000000000000000 ) ) ;
#103 = DIRECTION ( 'NONE',  ( 3.491481338843133355E-15, -4.327174794786742882E-16, 1.000000000000000000 ) ) ;
#104 = ADVANCED_FACE ( 'NONE', ( #7, #192 ), #69, .T. ) ;
#105 = FACE_OUTER_BOUND ( 'NONE', #82, .T. ) ;
#106 = DIRECTION ( 'NONE',  ( 0.0000000000000000000, 1.000000000000000000, 0.0000000000000000000 ) ) ;
#107 = DIRECTION ( 'NONE',  ( 0.0000000000000000000, 1.000000000000000000, 0.0000000000000000000 ) ) ;
#108 = VERTEX_POINT ( 'NONE', #71 ) ;
#109 = LOCAL_TIME ( 13, 36, 24.00000000000000000, #164 ) ;
#110 = FACE_OUTER_BOUND ( 'NONE', #20, .T. ) ;
#111 = DIRECTION ( 'NONE',  ( 0.0000000000000000000, -1.000000000000000000, 0.0000000000000000000 ) ) ;
#112 = CARTESIAN_POINT ( 'NONE',  ( 4.034775016650579200E-15, -1.415208569053400081E-16, 1.155605493795209604 ) ) ;
#113 = PERSON ( 'UNSPECIFIED', 'UNSPECIFIED', 'UNSPECIFIED', ('UNSPECIFIED'), ('UNSPECIFIED'), ('UNSPECIFIED') ) ;
#114 = PERSON_AND_ORGANIZATION ( #113, #76 ) ;
#115 = ORIENTED_EDGE ( 'NONE', *, *, #59, .F. ) ;
#116 = ADVANCED_FACE ( 'NONE', ( #210, #24 ), #248, .T. ) ;
#117 = DATE_TIME_ROLE ( 'classification_date' ) ;
#118 = ORIENTED_EDGE ( 'NONE', *, *, #223, .F. ) ;
#119 = CIRCLE ( 'NONE', #3, 3.308974596215571662 ) ;
#120 = CC_DESIGN_APPROVAL ( #257, ( #131 ) ) ;
#121 = PERSON_AND_ORGANIZATION_ROLE ( 'classification_officer' ) ;
#122 = EDGE_LOOP ( 'NONE', ( #77 ) ) ;
#123 = DATE_AND_TIME ( #229, #227 ) ;
#124 = DIRECTION ( 'NONE',  ( 0.0000000000000000000, 1.000000000000000000, 0.0000000000000000000 ) ) ;
#125 = APPLICATION_CONTEXT ( 'configuration controlled 3d designs of mechanical parts and assemblies' ) ;
#126 = CIRCLE ( 'NONE', #90, 3.175000000000005151 ) ;
#127 = DIRECTION ( 'NONE',  ( 4.275831445896958607E-31, 1.000000000000000000, 1.224646799147353207E-16 ) ) ;
#128 = CARTESIAN_POINT ( 'NONE',  ( 2.730338406975330410E-13, -9.576737969332300892E-15, 78.19999999999998863 ) ) ;
#129 = CARTESIAN_POINT ( 'NONE',  ( 1.276587406969331723E-13, -1.582141307566084248E-14, 36.56291651245988561 ) ) ;
#130 = EDGE_LOOP ( 'NONE', ( #99 ) ) ;
#131 = PRODUCT_DEFINITION ( 'UNKNOWN', '', #47, #18 ) ;
#132 = CARTESIAN_POINT ( 'NONE',  ( 8.379555213223520053E-14, -3.175000000000015365, 24.00000000000000000 ) ) ;
#133 = DIRECTION ( 'NONE',  ( -4.275831445896958607E-31, -1.000000000000000000, -1.224646799147353207E-16 ) ) ;
#134 = UNCERTAINTY_MEASURE_WITH_UNIT (LENGTH_MEASURE( 1.000000000000000082E-05 ), #199, 'distance_accuracy_value', 'NONE');
#135 = VERTEX_POINT ( 'NONE', #49 ) ;
#136 = AXIS2_PLACEMENT_3D ( 'NONE', #129, #103, #191 ) ;
#137 = CC_DESIGN_PERSON_AND_ORGANIZATION_ASSIGNMENT ( #181, #97, ( #131 ) ) ;
#138 = VERTEX_POINT ( 'NONE', #151 ) ;
#139 = SECURITY_CLASSIFICATION ( '', '', #203 ) ;
#140 = CC_DESIGN_PERSON_AND_ORGANIZATION_ASSIGNMENT ( #31, #52, ( #173 ) ) ;
#141 = EDGE_LOOP ( 'NONE', ( #185 ) ) ;
#142 = APPROVAL_STATUS ( 'not_yet_approved' ) ;
#143 = EDGE_LOOP ( 'NONE', ( #118 ) ) ;
#144 = EDGE_LOOP ( 'NONE', ( #55 ) ) ;
#145 = CC_DESIGN_PERSON_AND_ORGANIZATION_ASSIGNMENT ( #242, #121, ( #139 ) ) ;
#146 = CARTESIAN_POINT ( 'NONE',  ( 1.187103655206665341E-13, -1.471239430227492580E-14, 34.00000000000000000 ) ) ;
#147 = ORIENTED_EDGE ( 'NONE', *, *, #64, .T. ) ;
#148 = LOCAL_TIME ( 13, 36, 24.00000000000000000, #182 ) ;
#149 = FACE_BOUND ( 'NONE', #38, .T. ) ;
#150 = FACE_OUTER_BOUND ( 'NONE', #130, .T. ) ;
#151 = CARTESIAN_POINT ( 'NONE',  ( 1.204561061900881197E-13, 3.308974596215557007, 34.50000000000000000 ) ) ;
#152 = MECHANICAL_CONTEXT ( 'NONE', #125, 'mechanical' ) ;
#153 = ADVANCED_FACE ( 'NONE', ( #149, #26 ), #221, .T. ) ;
#154 = AXIS2_PLACEMENT_3D ( 'NONE', #102, #215, #58 ) ;
#155 = AXIS2_PLACEMENT_3D ( 'NONE', #128, #29, #107 ) ;
#156 = CARTESIAN_POINT ( 'NONE',  ( 4.034775016650577622E-15, -3.175000000000005151, 1.155605493795209160 ) ) ;
#157 = LOCAL_TIME ( 13, 36, 24.00000000000000000, #162 ) ;
#158 = DIRECTION ( 'NONE',  ( 1.510825004591027855E-30, 1.000000000000000000, 4.327174794786742389E-16 ) ) ;
#159 = CC_DESIGN_PERSON_AND_ORGANIZATION_ASSIGNMENT ( #114, #224, ( #47 ) ) ;
#160 = APPROVAL_ROLE ( '' ) ;
#161 = AXIS2_PLACEMENT_3D ( 'NONE', #60, #41, #127 ) ;
#162 = COORDINATED_UNIVERSAL_TIME_OFFSET ( 1, 0, .AHEAD. ) ;
#163 = EDGE_LOOP ( 'NONE', ( #165 ) ) ;
#164 = COORDINATED_UNIVERSAL_TIME_OFFSET ( 1, 0, .AHEAD. ) ;
#165 = ORIENTED_EDGE ( 'NONE', *, *, #81, .T. ) ;
#166 = APPROVAL ( #19, 'UNSPECIFIED' ) ;
#167 = DIRECTION ( 'NONE',  ( 0.0000000000000000000, 1.000000000000000000, 0.0000000000000000000 ) ) ;
#168 = CARTESIAN_POINT ( 'NONE',  ( 2.758270257686075477E-13, -9.674709713264090904E-15, 79.00000000000000000 ) ) ;
#169 = DIRECTION ( 'NONE',  ( 3.491481338843133355E-15, -4.327174794786742882E-16, 1.000000000000000000 ) ) ;
#170 = CLOSED_SHELL ( 'NONE', ( #94, #56, #244 ) ) ;
#171 = AXIS2_PLACEMENT_3D ( 'NONE', #219, #10, #13 ) ;
#172 = DIRECTION ( 'NONE',  ( -3.491481338843133355E-15, 4.327174794786742882E-16, -1.000000000000000000 ) ) ;
#173 = PRODUCT ( '44585', '44585', '', ( #152 ) ) ;
#174 = DIRECTION ( 'NONE',  ( -3.491481338843133355E-15, 4.327174794786742882E-16, -1.000000000000000000 ) ) ;
#175 = VERTEX_POINT ( 'NONE', #180 ) ;
#176 = CLOSED_SHELL ( 'NONE', ( #116, #104, #45, #202, #153, #190, #220 ) ) ;
#177 = DIRECTION ( 'NONE',  ( 3.491481338843133355E-15, -1.224646799147353207E-16, 1.000000000000000000 ) ) ;
#178 = CC_DESIGN_PERSON_AND_ORGANIZATION_ASSIGNMENT ( #36, #261, ( #47 ) ) ;
#179 = PLANE ( 'NONE',  #84 ) ;
#180 = CARTESIAN_POINT ( 'NONE',  ( 8.379555213223520053E-14, -3.175000000000015365, 24.00000000000000000 ) ) ;
#181 = PERSON_AND_ORGANIZATION ( #113, #76 ) ;
#182 = COORDINATED_UNIVERSAL_TIME_OFFSET ( 1, 0, .AHEAD. ) ;
#183 = EDGE_CURVE ( 'NONE', #216, #216, #232, .T. ) ;
#184 = APPROVAL_ROLE ( '' ) ;
#185 = ORIENTED_EDGE ( 'NONE', *, *, #8, .T. ) ;
#186 = SHAPE_DEFINITION_REPRESENTATION ( #235, #66 ) ;
#187 = EDGE_LOOP ( 'NONE', ( #63 ) ) ;
#188 = CC_DESIGN_SECURITY_CLASSIFICATION ( #139, ( #47 ) ) ;
#189 = CARTESIAN_POINT ( 'NONE',  ( 8.379555213223520053E-14, -1.038521950748818292E-14, 24.00000000000000000 ) ) ;
#190 = ADVANCED_FACE ( 'NONE', ( #62, #213 ), #54, .F. ) ;
#191 = DIRECTION ( 'NONE',  ( 0.0000000000000000000, -1.000000000000000000, 0.0000000000000000000 ) ) ;
#192 = FACE_BOUND ( 'NONE', #141, .T. ) ;
#193 = CIRCLE ( 'NONE', #14, 3.175000000000005151 ) ;
#194 = CC_DESIGN_APPROVAL ( #166, ( #139 ) ) ;
#195 = CARTESIAN_POINT ( 'NONE',  ( 1.204561061900881197E-13, -1.492875304201426452E-14, 34.50000000000000000 ) ) ;
#196 = DIRECTION ( 'NONE',  ( -3.491481338843133355E-15, 1.224646799147353207E-16, -1.000000000000000000 ) ) ;
#197 =( GEOMETRIC_REPRESENTATION_CONTEXT ( 3 ) GLOBAL_UNCERTAINTY_ASSIGNED_CONTEXT ( ( #134 ) ) GLOBAL_UNIT_ASSIGNED_CONTEXT ( ( #199, #200, #218 ) ) REPRESENTATION_CONTEXT ( 'NONE', 'WORKASPACE' ) );
#198 = DIRECTION ( 'NONE',  ( 1.510825004591027855E-30, 1.000000000000000000, 4.327174794786742882E-16 ) ) ;
#199 =( LENGTH_UNIT ( ) NAMED_UNIT ( * ) SI_UNIT ( .MILLI., .METRE. ) );
#200 =( NAMED_UNIT ( * ) PLANE_ANGLE_UNIT ( ) SI_UNIT ( $, .RADIAN. ) );
#201 = AXIS2_PLACEMENT_3D ( 'NONE', #231, #46, #27 ) ;
#202 = ADVANCED_FACE ( 'NONE', ( #105, #110 ), #92, .T. ) ;
#203 = SECURITY_CLASSIFICATION_LEVEL ( 'unclassified' ) ;
#204 = CALENDAR_DATE ( 2021, 13, 10 ) ;
#205 = MANIFOLD_SOLID_BREP ( 'Corps-Déplacer/Copier1[1]', #176 ) ;
#206 = EDGE_LOOP ( 'NONE', ( #80 ) ) ;
#207 = PERSON_AND_ORGANIZATION ( #113, #76 ) ;
#208 = ORIENTED_EDGE ( 'NONE', *, *, #81, .F. ) ;
#209 = CALENDAR_DATE ( 2021, 13, 10 ) ;
#210 = FACE_OUTER_BOUND ( 'NONE', #122, .T. ) ;
#211 = CONICAL_SURFACE ( 'NONE', #201, 3.999999999999992450, 1.221730476396026388 ) ;
#212 = EDGE_LOOP ( 'NONE', ( #65 ) ) ;
#213 = FACE_OUTER_BOUND ( 'NONE', #212, .T. ) ;
#214 = CARTESIAN_POINT ( 'NONE',  ( 0.0000000000000000000, 0.0000000000000000000, 0.0000000000000000000 ) ) ;
#215 = DIRECTION ( 'NONE',  ( -3.491481338843133355E-15, 1.224646799147353207E-16, -1.000000000000000000 ) ) ;
#216 = VERTEX_POINT ( 'NONE', #68 ) ;
#217 = CC_DESIGN_DATE_AND_TIME_ASSIGNMENT ( #123, #117, ( #139 ) ) ;
#218 =( NAMED_UNIT ( * ) SI_UNIT ( $, .STERADIAN. ) SOLID_ANGLE_UNIT ( ) );
#219 = CARTESIAN_POINT ( 'NONE',  ( 0.0000000000000000000, 0.0000000000000000000, 0.0000000000000000000 ) ) ;
#220 = ADVANCED_FACE ( 'NONE', ( #88 ), #179, .F. ) ;
#221 = CONICAL_SURFACE ( 'NONE', #136, 4.500000000000012434, 0.5235987755982995928 ) ;
#222 = AXIS2_PLACEMENT_3D ( 'NONE', #4, #1, #124 ) ;
#223 = EDGE_CURVE ( 'NONE', #33, #33, #126, .T. ) ;
#224 = PERSON_AND_ORGANIZATION_ROLE ( 'creator' ) ;
#225 = EDGE_LOOP ( 'NONE', ( #147 ) ) ;
#226 = APPROVAL_DATE_TIME ( #22, #166 ) ;
#227 = LOCAL_TIME ( 13, 36, 24.00000000000000000, #74 ) ;
#228 = ORIENTED_EDGE ( 'NONE', *, *, #64, .F. ) ;
#229 = CALENDAR_DATE ( 2021, 13, 10 ) ;
#230 = DIRECTION ( 'NONE',  ( 0.0000000000000000000, -1.000000000000000000, 0.0000000000000000000 ) ) ;
#231 = CARTESIAN_POINT ( 'NONE',  ( 5.083181123339294451E-15, -1.782939929516088463E-16, 1.455880937064826020 ) ) ;
#232 = CIRCLE ( 'NONE', #101, 3.999999999999998224 ) ;
#233 = DIRECTION ( 'NONE',  ( 0.0000000000000000000, 1.000000000000000000, 0.0000000000000000000 ) ) ;
#234 = DIRECTION ( 'NONE',  ( 1.510825004591027855E-30, 1.000000000000000000, 4.327174794786742389E-16 ) ) ;
#235 = PRODUCT_DEFINITION_SHAPE ( 'NONE', 'NONE',  #131 ) ;
#236 = PLANE ( 'NONE',  #154 ) ;
#237 = EDGE_CURVE ( 'NONE', #253, #253, #23, .T. ) ;
#238 = PLANE ( 'NONE',  #61 ) ;
#239 = AXIS2_PLACEMENT_3D ( 'NONE', #168, #43, #167 ) ;
#240 = AXIS2_PLACEMENT_3D ( 'NONE', #146, #250, #106 ) ;
#241 = LOCAL_TIME ( 13, 36, 24.00000000000000000, #95 ) ;
#242 = PERSON_AND_ORGANIZATION ( #113, #76 ) ;
#243 = AXIS2_PLACEMENT_3D ( 'NONE', #254, #9, #158 ) ;
#244 = ADVANCED_FACE ( 'NONE', ( #72 ), #238, .T. ) ;
#245 = ORIENTED_EDGE ( 'NONE', *, *, #59, .T. ) ;
#246 = EDGE_LOOP ( 'NONE', ( #35 ) ) ;
#247 = DIRECTION ( 'NONE',  ( -3.491481338843133355E-15, 4.327174794786742882E-16, -1.000000000000000000 ) ) ;
#248 = CYLINDRICAL_SURFACE ( 'NONE', #161, 3.999999999999998224 ) ;
#249 = DIRECTION ( 'NONE',  ( 0.0000000000000000000, -1.000000000000000000, 0.0000000000000000000 ) ) ;
#250 = DIRECTION ( 'NONE',  ( -3.491481338843133355E-15, 4.327174794786742882E-16, -1.000000000000000000 ) ) ;
#251 = CARTESIAN_POINT ( 'NONE',  ( 8.379555213223520053E-14, -1.038521950748818292E-14, 24.00000000000000000 ) ) ;
#252 = DIRECTION ( 'NONE',  ( -3.491481338843133355E-15, 1.224646799147353207E-16, -1.000000000000000000 ) ) ;
#253 = VERTEX_POINT ( 'NONE', #156 ) ;
#254 = CARTESIAN_POINT ( 'NONE',  ( 0.0000000000000000000, 0.0000000000000000000, 0.0000000000000000000 ) ) ;
#255 = PERSON_AND_ORGANIZATION ( #113, #76 ) ;
#256 = PERSON_AND_ORGANIZATION ( #113, #76 ) ;
#257 = APPROVAL ( #142, 'UNSPECIFIED' ) ;
#258 = CC_DESIGN_APPROVAL ( #34, ( #47 ) ) ;
#259 = DATE_TIME_ROLE ( 'creation_date' ) ;
#260 = EDGE_LOOP ( 'NONE', ( #228 ) ) ;
#261 = PERSON_AND_ORGANIZATION_ROLE ( 'design_supplier' ) ;
#262 = EDGE_LOOP ( 'NONE', ( #115 ) ) ;
#263 = APPROVAL_PERSON_ORGANIZATION ( #255, #34, #75 ) ;
ENDSEC;
END-ISO-10303-21;
