ISO-10303-21;
HEADER;
FILE_DESCRIPTION (( 'STEP AP203' ),
    '1' );
FILE_NAME ('44387.step',
    '2021-10-08T05:53:52',
    ( '' ),
    ( '' ),
    'SwSTEP 2.0',
    'SolidWorks 2019',
    '' );
FILE_SCHEMA (( 'CONFIG_CONTROL_DESIGN' ));
ENDSEC;

DATA;
#1 = CYLINDRICAL_SURFACE ( 'NONE', #34, 0.6650000000000000355 ) ;
#2 = PLANE ( 'NONE',  #199 ) ;
#3 = CIRCLE ( 'NONE', #103, 0.6650000000000012568 ) ;
#4 = CC_DESIGN_PERSON_AND_ORGANIZATION_ASSIGNMENT ( #131, #164, ( #167 ) ) ;
#5 = CARTESIAN_POINT ( 'NONE',  ( 1.047444401652940007E-13, -3.673940397442059178E-15, 30.00000000000000000 ) ) ;
#6 = CARTESIAN_POINT ( 'NONE',  ( 0.0000000000000000000, 0.0000000000000000000, 0.0000000000000000000 ) ) ;
#7 = CIRCLE ( 'NONE', #51, 0.5500000000000000444 ) ;
#8 = DIRECTION ( 'NONE',  ( -4.275831445896958607E-31, -1.000000000000000000, -1.224646799147353207E-16 ) ) ;
#9 = DATE_AND_TIME ( #201, #173 ) ;
#10 = COORDINATED_UNIVERSAL_TIME_OFFSET ( 1, 0, .AHEAD. ) ;
#11 = PERSON_AND_ORGANIZATION ( #165, #210 ) ;
#12 =( GEOMETRIC_REPRESENTATION_CONTEXT ( 3 ) GLOBAL_UNCERTAINTY_ASSIGNED_CONTEXT ( ( #160 ) ) GLOBAL_UNIT_ASSIGNED_CONTEXT ( ( #174, #125, #40 ) ) REPRESENTATION_CONTEXT ( 'NONE', 'WORKASPACE' ) );
#13 = FACE_OUTER_BOUND ( 'NONE', #196, .T. ) ;
#14 = EDGE_LOOP ( 'NONE', ( #214 ) ) ;
#15 = EDGE_CURVE ( 'NONE', #141, #141, #119, .T. ) ;
#16 = AXIS2_PLACEMENT_3D ( 'NONE', #168, #85, #150 ) ;
#17 = DIRECTION ( 'NONE',  ( -3.491481338843133355E-15, 1.224646799147353207E-16, -1.000000000000000000 ) ) ;
#18 = DESIGN_CONTEXT ( 'detailed design', #95, 'design' ) ;
#19 = DIRECTION ( 'NONE',  ( -4.275831445896958607E-31, -1.000000000000000000, -1.224646799147353207E-16 ) ) ;
#20 = DIRECTION ( 'NONE',  ( 0.0000000000000000000, 1.000000000000000000, 0.0000000000000000000 ) ) ;
#21 = PERSON_AND_ORGANIZATION ( #165, #210 ) ;
#22 = ADVANCED_FACE ( 'NONE', ( #104, #31 ), #61, .T. ) ;
#23 = APPROVAL_PERSON_ORGANIZATION ( #21, #220, #37 ) ;
#24 = CARTESIAN_POINT ( 'NONE',  ( 1.340512114416352363E-15, -4.701883558347133389E-17, 0.3839379290111049059 ) ) ;
#25 = DATE_TIME_ROLE ( 'classification_date' ) ;
#26 = EDGE_LOOP ( 'NONE', ( #118 ) ) ;
#27 = CONICAL_SURFACE ( 'NONE', #142, 0.6649999999999989253, 1.047197551196592746 ) ;
#28 = SECURITY_CLASSIFICATION_LEVEL ( 'unclassified' ) ;
#29 = APPROVAL_STATUS ( 'not_yet_approved' ) ;
#30 = CLOSED_SHELL ( 'NONE', ( #89, #114, #60 ) ) ;
#31 = FACE_OUTER_BOUND ( 'NONE', #69, .T. ) ;
#32 = APPLICATION_CONTEXT ( 'configuration controlled 3d designs of mechanical parts and assemblies' ) ;
#33 = DIRECTION ( 'NONE',  ( 3.491481338843133355E-15, -1.224646799147353207E-16, 1.000000000000000000 ) ) ;
#34 = AXIS2_PLACEMENT_3D ( 'NONE', #188, #204, #56 ) ;
#35 = PRODUCT_DEFINITION ( 'UNKNOWN', '', #167, #18 ) ;
#36 = CYLINDRICAL_SURFACE ( 'NONE', #16, 0.7499999999999988898 ) ;
#37 = APPROVAL_ROLE ( '' ) ;
#38 = PLANE ( 'NONE',  #218 ) ;
#39 = CC_DESIGN_APPROVAL ( #198, ( #167 ) ) ;
#40 =( NAMED_UNIT ( * ) SI_UNIT ( $, .STERADIAN. ) SOLID_ANGLE_UNIT ( ) );
#41 = DIRECTION ( 'NONE',  ( 3.491481338843133355E-15, -1.224646799147353207E-16, 1.000000000000000000 ) ) ;
#42 = CC_DESIGN_SECURITY_CLASSIFICATION ( #57, ( #167 ) ) ;
#43 = CC_DESIGN_PERSON_AND_ORGANIZATION_ASSIGNMENT ( #213, #180, ( #167 ) ) ;
#44 = APPROVAL_ROLE ( '' ) ;
#45 = PERSON_AND_ORGANIZATION ( #165, #210 ) ;
#46 = ORIENTED_EDGE ( 'NONE', *, *, #15, .T. ) ;
#47 = PERSON_AND_ORGANIZATION ( #165, #210 ) ;
#48 = CC_DESIGN_PERSON_AND_ORGANIZATION_ASSIGNMENT ( #215, #115, ( #35 ) ) ;
#49 = PERSON_AND_ORGANIZATION_ROLE ( 'classification_officer' ) ;
#50 = EDGE_LOOP ( 'NONE', ( #197 ) ) ;
#51 = AXIS2_PLACEMENT_3D ( 'NONE', #5, #207, #193 ) ;
#52 = EDGE_LOOP ( 'NONE', ( #216 ) ) ;
#53 = DIRECTION ( 'NONE',  ( 3.491481338843133355E-15, -1.224646799147353207E-16, 1.000000000000000000 ) ) ;
#54 = FACE_OUTER_BOUND ( 'NONE', #65, .T. ) ;
#55 = CC_DESIGN_DATE_AND_TIME_ASSIGNMENT ( #166, #63, ( #35 ) ) ;
#56 = DIRECTION ( 'NONE',  ( 4.275831445896958607E-31, 1.000000000000000000, 1.224646799147352961E-16 ) ) ;
#57 = SECURITY_CLASSIFICATION ( '', '', #28 ) ;
#58 = CC_DESIGN_APPROVAL ( #220, ( #35 ) ) ;
#59 = CARTESIAN_POINT ( 'NONE',  ( 1.040461438975253740E-13, 0.7499999999999963363, 29.80000000000000071 ) ) ;
#60 = ADVANCED_FACE ( 'NONE', ( #100 ), #2, .T. ) ;
#61 = CONICAL_SURFACE ( 'NONE', #156, 0.7499999999999977796, 0.5235987755982869363 ) ;
#62 = DIRECTION ( 'NONE',  ( 1.000000000000000000, 0.0000000000000000000, 0.0000000000000000000 ) ) ;
#63 = DATE_TIME_ROLE ( 'creation_date' ) ;
#64 = DATE_AND_TIME ( #184, #177 ) ;
#65 = EDGE_LOOP ( 'NONE', ( #185 ) ) ;
#66 = APPROVAL_STATUS ( 'not_yet_approved' ) ;
#67 = CALENDAR_DATE ( 2021, 8, 10 ) ;
#68 = CIRCLE ( 'NONE', #187, 0.6649999999999989253 ) ;
#69 = EDGE_LOOP ( 'NONE', ( #182 ) ) ;
#70 = FACE_BOUND ( 'NONE', #50, .T. ) ;
#71 = CARTESIAN_POINT ( 'NONE',  ( 3.961862195621025038E-14, -1.389634194103358898E-15, 11.34722431864335235 ) ) ;
#72 = CARTESIAN_POINT ( 'NONE',  ( 1.040461438975253740E-13, -3.649447461459112464E-15, 29.80000000000000071 ) ) ;
#73 = CARTESIAN_POINT ( 'NONE',  ( 3.910459099504309358E-14, 4.986701277350665051E-33, 11.19999999999999929 ) ) ;
#74 = AXIS2_PLACEMENT_3D ( 'NONE', #133, #176, #78 ) ;
#75 = CARTESIAN_POINT ( 'NONE',  ( 3.910459099504309358E-14, 4.986701277350665051E-33, 11.19999999999999929 ) ) ;
#76 = EDGE_CURVE ( 'NONE', #194, #194, #3, .T. ) ;
#77 = CARTESIAN_POINT ( 'NONE',  ( 1.340512114416352560E-15, 0.6649999999999989253, 0.3839379290111050169 ) ) ;
#78 = DIRECTION ( 'NONE',  ( 0.0000000000000000000, 1.000000000000000000, 0.0000000000000000000 ) ) ;
#79 = PERSON_AND_ORGANIZATION ( #165, #210 ) ;
#80 = CIRCLE ( 'NONE', #134, 0.6650000000000012568 ) ;
#81 = EDGE_CURVE ( 'NONE', #209, #209, #93, .T. ) ;
#82 = ORIENTED_EDGE ( 'NONE', *, *, #76, .T. ) ;
#83 = APPROVAL_PERSON_ORGANIZATION ( #47, #178, #195 ) ;
#84 = ADVANCED_FACE ( 'NONE', ( #13 ), #120, .F. ) ;
#85 = DIRECTION ( 'NONE',  ( -3.491481338843133355E-15, 1.224646799147353207E-16, -1.000000000000000000 ) ) ;
#86 = EDGE_LOOP ( 'NONE', ( #82 ) ) ;
#87 = MANIFOLD_SOLID_BREP ( 'Corps-Déplacer/Copier1[1]', #108 ) ;
#88 = CONICAL_SURFACE ( 'NONE', #74, 0.5500000000000000444, 0.7853981633974512766 ) ;
#89 = ADVANCED_FACE ( 'NONE', ( #54 ), #27, .T. ) ;
#90 = CARTESIAN_POINT ( 'NONE',  ( 1.340512114416352363E-15, -4.701883558347133389E-17, 0.3839379290111049059 ) ) ;
#91 = DIRECTION ( 'NONE',  ( 2.896135254717652453E-31, 1.000000000000000000, 1.630379206745122013E-16 ) ) ;
#92 = CARTESIAN_POINT ( 'NONE',  ( 3.910459099504309358E-14, 0.6649999999999998135, 11.19999999999999929 ) ) ;
#93 = CIRCLE ( 'NONE', #98, 0.7499999999999977796 ) ;
#94 = VERTEX_POINT ( 'NONE', #126 ) ;
#95 = APPLICATION_CONTEXT ( 'configuration controlled 3d designs of mechanical parts and assemblies' ) ;
#96 = APPROVAL_DATE_TIME ( #9, #178 ) ;
#97 = SHAPE_DEFINITION_REPRESENTATION ( #132, #102 ) ;
#98 = AXIS2_PLACEMENT_3D ( 'NONE', #71, #170, #139 ) ;
#99 = CARTESIAN_POINT ( 'NONE',  ( 1.047444401652940007E-13, 4.124339402320052999E-33, 30.00000000000000000 ) ) ;
#100 = FACE_OUTER_BOUND ( 'NONE', #153, .T. ) ;
#101 = CC_DESIGN_DATE_AND_TIME_ASSIGNMENT ( #64, #25, ( #57 ) ) ;
#102 = ADVANCED_BREP_SHAPE_REPRESENTATION ( '44387', ( #87, #158, #122 ), #12 ) ;
#103 = AXIS2_PLACEMENT_3D ( 'NONE', #152, #17, #222 ) ;
#104 = FACE_BOUND ( 'NONE', #14, .T. ) ;
#105 = EDGE_LOOP ( 'NONE', ( #219 ) ) ;
#106 = COORDINATED_UNIVERSAL_TIME_OFFSET ( 1, 0, .AHEAD. ) ;
#107 = CARTESIAN_POINT ( 'NONE',  ( 3.910459099504309358E-14, -1.371604415045035513E-15, 11.19999999999999929 ) ) ;
#108 = CLOSED_SHELL ( 'NONE', ( #190, #22, #144, #151, #84 ) ) ;
#109 = APPLICATION_PROTOCOL_DEFINITION ( 'international standard', 'config_control_design', 1994, #32 ) ;
#110 = CARTESIAN_POINT ( 'NONE',  ( 3.910459099504309358E-14, 0.6649999999999998135, 11.19999999999999929 ) ) ;
#111 = CC_DESIGN_APPROVAL ( #178, ( #57 ) ) ;
#112 = APPROVAL_DATE_TIME ( #183, #220 ) ;
#113 = COORDINATED_UNIVERSAL_TIME_OFFSET ( 1, 0, .AHEAD. ) ;
#114 = ADVANCED_FACE ( 'NONE', ( #154, #186 ), #1, .T. ) ;
#115 = PERSON_AND_ORGANIZATION_ROLE ( 'creator' ) ;
#116 = APPROVAL_PERSON_ORGANIZATION ( #45, #198, #44 ) ;
#117 = CC_DESIGN_PERSON_AND_ORGANIZATION_ASSIGNMENT ( #79, #143, ( #135 ) ) ;
#118 = ORIENTED_EDGE ( 'NONE', *, *, #15, .F. ) ;
#119 = CIRCLE ( 'NONE', #162, 0.7500000000000000000 ) ;
#120 = PLANE ( 'NONE',  #138 ) ;
#121 = DIRECTION ( 'NONE',  ( -2.896135254717652453E-31, -1.000000000000000000, -1.630379206745122013E-16 ) ) ;
#122 = AXIS2_PLACEMENT_3D ( 'NONE', #6, #208, #62 ) ;
#123 = FACE_OUTER_BOUND ( 'NONE', #105, .T. ) ;
#124 = APPLICATION_PROTOCOL_DEFINITION ( 'international standard', 'config_control_design', 1994, #95 ) ;
#125 =( NAMED_UNIT ( * ) PLANE_ANGLE_UNIT ( ) SI_UNIT ( $, .RADIAN. ) );
#126 = CARTESIAN_POINT ( 'NONE',  ( 1.047444401652940007E-13, 0.5499999999999963807, 30.00000000000000000 ) ) ;
#127 = APPROVAL_STATUS ( 'not_yet_approved' ) ;
#128 = PRODUCT_RELATED_PRODUCT_CATEGORY ( 'detail', '', ( #135 ) ) ;
#129 = COORDINATED_UNIVERSAL_TIME_OFFSET ( 1, 0, .AHEAD. ) ;
#130 = ORIENTED_EDGE ( 'NONE', *, *, #175, .F. ) ;
#131 = PERSON_AND_ORGANIZATION ( #165, #210 ) ;
#132 = PRODUCT_DEFINITION_SHAPE ( 'NONE', 'NONE',  #35 ) ;
#133 = CARTESIAN_POINT ( 'NONE',  ( 1.047444401652940007E-13, -3.673940397442059178E-15, 30.00000000000000000 ) ) ;
#134 = AXIS2_PLACEMENT_3D ( 'NONE', #107, #163, #20 ) ;
#135 = PRODUCT ( '44387', '44387', '', ( #192 ) ) ;
#136 = DIRECTION ( 'NONE',  ( -3.491481338843133355E-15, 1.224646799147353207E-16, -1.000000000000000000 ) ) ;
#137 = DIRECTION ( 'NONE',  ( 0.0000000000000000000, 1.000000000000000000, 0.0000000000000000000 ) ) ;
#138 = AXIS2_PLACEMENT_3D ( 'NONE', #99, #136, #206 ) ;
#139 = DIRECTION ( 'NONE',  ( 0.0000000000000000000, 1.000000000000000000, 0.0000000000000000000 ) ) ;
#140 = CARTESIAN_POINT ( 'NONE',  ( 3.961862195621025038E-14, 0.7499999999999963363, 11.34722431864335235 ) ) ;
#141 = VERTEX_POINT ( 'NONE', #59 ) ;
#142 = AXIS2_PLACEMENT_3D ( 'NONE', #90, #53, #121 ) ;
#143 = PERSON_AND_ORGANIZATION_ROLE ( 'design_owner' ) ;
#144 = ADVANCED_FACE ( 'NONE', ( #123, #191 ), #36, .T. ) ;
#145 = COORDINATED_UNIVERSAL_TIME_OFFSET ( 1, 0, .AHEAD. ) ;
#146 = CC_DESIGN_PERSON_AND_ORGANIZATION_ASSIGNMENT ( #11, #49, ( #57 ) ) ;
#147 = LOCAL_TIME ( 7, 53, 52.00000000000000000, #113 ) ;
#148 = LOCAL_TIME ( 7, 53, 52.00000000000000000, #106 ) ;
#149 = EDGE_LOOP ( 'NONE', ( #202 ) ) ;
#150 = DIRECTION ( 'NONE',  ( 4.275831445896959482E-31, 1.000000000000000000, 1.224646799147353207E-16 ) ) ;
#151 = ADVANCED_FACE ( 'NONE', ( #221, #70 ), #88, .T. ) ;
#152 = CARTESIAN_POINT ( 'NONE',  ( 3.910459099504309358E-14, -1.371604415045035513E-15, 11.19999999999999929 ) ) ;
#153 = EDGE_LOOP ( 'NONE', ( #169 ) ) ;
#154 = FACE_OUTER_BOUND ( 'NONE', #52, .T. ) ;
#155 = EDGE_CURVE ( 'NONE', #157, #157, #68, .T. ) ;
#156 = AXIS2_PLACEMENT_3D ( 'NONE', #171, #189, #203 ) ;
#157 = VERTEX_POINT ( 'NONE', #77 ) ;
#158 = MANIFOLD_SOLID_BREP ( 'Corps-Déplacer/Copier1[2]', #30 ) ;
#159 = DIRECTION ( 'NONE',  ( -3.491481338843133355E-15, 1.224646799147353207E-16, -1.000000000000000000 ) ) ;
#160 = UNCERTAINTY_MEASURE_WITH_UNIT (LENGTH_MEASURE( 1.000000000000000082E-05 ), #174, 'distance_accuracy_value', 'NONE');
#161 = VERTEX_POINT ( 'NONE', #92 ) ;
#162 = AXIS2_PLACEMENT_3D ( 'NONE', #72, #223, #137 ) ;
#163 = DIRECTION ( 'NONE',  ( -3.491481338843133355E-15, 1.224646799147353207E-16, -1.000000000000000000 ) ) ;
#164 = PERSON_AND_ORGANIZATION_ROLE ( 'design_supplier' ) ;
#165 = PERSON ( 'UNSPECIFIED', 'UNSPECIFIED', 'UNSPECIFIED', ('UNSPECIFIED'), ('UNSPECIFIED'), ('UNSPECIFIED') ) ;
#166 = DATE_AND_TIME ( #67, #205 ) ;
#167 = PRODUCT_DEFINITION_FORMATION_WITH_SPECIFIED_SOURCE ( 'ANY', '', #135, .NOT_KNOWN. ) ;
#168 = CARTESIAN_POINT ( 'NONE',  ( 0.0000000000000000000, 0.0000000000000000000, 0.0000000000000000000 ) ) ;
#169 = ORIENTED_EDGE ( 'NONE', *, *, #212, .F. ) ;
#170 = DIRECTION ( 'NONE',  ( -3.491481338843133355E-15, 1.224646799147353207E-16, -1.000000000000000000 ) ) ;
#171 = CARTESIAN_POINT ( 'NONE',  ( 3.961862195621025038E-14, -1.389634194103358898E-15, 11.34722431864335235 ) ) ;
#172 = CALENDAR_DATE ( 2021, 8, 10 ) ;
#173 = LOCAL_TIME ( 7, 53, 52.00000000000000000, #10 ) ;
#174 =( LENGTH_UNIT ( ) NAMED_UNIT ( * ) SI_UNIT ( .MILLI., .METRE. ) );
#175 = EDGE_CURVE ( 'NONE', #94, #94, #7, .T. ) ;
#176 = DIRECTION ( 'NONE',  ( -3.491481338843133355E-15, 1.224646799147353207E-16, -1.000000000000000000 ) ) ;
#177 = LOCAL_TIME ( 7, 53, 52.00000000000000000, #145 ) ;
#178 = APPROVAL ( #66, 'UNSPECIFIED' ) ;
#179 = FACE_OUTER_BOUND ( 'NONE', #86, .T. ) ;
#180 = PERSON_AND_ORGANIZATION_ROLE ( 'creator' ) ;
#181 = DATE_AND_TIME ( #211, #147 ) ;
#182 = ORIENTED_EDGE ( 'NONE', *, *, #81, .T. ) ;
#183 = DATE_AND_TIME ( #172, #148 ) ;
#184 = CALENDAR_DATE ( 2021, 8, 10 ) ;
#185 = ORIENTED_EDGE ( 'NONE', *, *, #155, .T. ) ;
#186 = FACE_OUTER_BOUND ( 'NONE', #149, .T. ) ;
#187 = AXIS2_PLACEMENT_3D ( 'NONE', #24, #159, #91 ) ;
#188 = CARTESIAN_POINT ( 'NONE',  ( 0.0000000000000000000, 0.0000000000000000000, 0.0000000000000000000 ) ) ;
#189 = DIRECTION ( 'NONE',  ( 3.491481338843133355E-15, -1.224646799147353207E-16, 1.000000000000000000 ) ) ;
#190 = ADVANCED_FACE ( 'NONE', ( #179 ), #38, .F. ) ;
#191 = FACE_OUTER_BOUND ( 'NONE', #200, .T. ) ;
#192 = MECHANICAL_CONTEXT ( 'NONE', #32, 'mechanical' ) ;
#193 = DIRECTION ( 'NONE',  ( 0.0000000000000000000, 1.000000000000000000, 0.0000000000000000000 ) ) ;
#194 = VERTEX_POINT ( 'NONE', #110 ) ;
#195 = APPROVAL_ROLE ( '' ) ;
#196 = EDGE_LOOP ( 'NONE', ( #130 ) ) ;
#197 = ORIENTED_EDGE ( 'NONE', *, *, #175, .T. ) ;
#198 = APPROVAL ( #29, 'UNSPECIFIED' ) ;
#199 = AXIS2_PLACEMENT_3D ( 'NONE', #73, #33, #19 ) ;
#200 = EDGE_LOOP ( 'NONE', ( #46 ) ) ;
#201 = CALENDAR_DATE ( 2021, 8, 10 ) ;
#202 = ORIENTED_EDGE ( 'NONE', *, *, #212, .T. ) ;
#203 = DIRECTION ( 'NONE',  ( 0.0000000000000000000, -1.000000000000000000, 0.0000000000000000000 ) ) ;
#204 = DIRECTION ( 'NONE',  ( -3.491481338843133355E-15, 1.224646799147353207E-16, -1.000000000000000000 ) ) ;
#205 = LOCAL_TIME ( 7, 53, 52.00000000000000000, #129 ) ;
#206 = DIRECTION ( 'NONE',  ( 4.275831445896958607E-31, 1.000000000000000000, 1.224646799147353207E-16 ) ) ;
#207 = DIRECTION ( 'NONE',  ( -3.491481338843133355E-15, 1.224646799147353207E-16, -1.000000000000000000 ) ) ;
#208 = DIRECTION ( 'NONE',  ( 0.0000000000000000000, 0.0000000000000000000, 1.000000000000000000 ) ) ;
#209 = VERTEX_POINT ( 'NONE', #140 ) ;
#210 = ORGANIZATION ( 'UNSPECIFIED', 'UNSPECIFIED', '' ) ;
#211 = CALENDAR_DATE ( 2021, 8, 10 ) ;
#212 = EDGE_CURVE ( 'NONE', #161, #161, #80, .T. ) ;
#213 = PERSON_AND_ORGANIZATION ( #165, #210 ) ;
#214 = ORIENTED_EDGE ( 'NONE', *, *, #76, .F. ) ;
#215 = PERSON_AND_ORGANIZATION ( #165, #210 ) ;
#216 = ORIENTED_EDGE ( 'NONE', *, *, #155, .F. ) ;
#217 = APPROVAL_DATE_TIME ( #181, #198 ) ;
#218 = AXIS2_PLACEMENT_3D ( 'NONE', #75, #41, #8 ) ;
#219 = ORIENTED_EDGE ( 'NONE', *, *, #81, .F. ) ;
#220 = APPROVAL ( #127, 'UNSPECIFIED' ) ;
#221 = FACE_OUTER_BOUND ( 'NONE', #26, .T. ) ;
#222 = DIRECTION ( 'NONE',  ( 0.0000000000000000000, 1.000000000000000000, 0.0000000000000000000 ) ) ;
#223 = DIRECTION ( 'NONE',  ( -3.491481338843133355E-15, 1.224646799147353207E-16, -1.000000000000000000 ) ) ;
ENDSEC;
END-ISO-10303-21;
