ISO-10303-21;
HEADER;
FILE_DESCRIPTION (( 'STEP AP203' ),
    '1' );
FILE_NAME ('44254.step',
    '2021-10-07T13:48:03',
    ( '' ),
    ( '' ),
    'SwSTEP 2.0',
    'SolidWorks 2019',
    '' );
FILE_SCHEMA (( 'CONFIG_CONTROL_DESIGN' ));
ENDSEC;

DATA;
#1 = AXIS2_PLACEMENT_3D ( 'NONE', #2, #142, #211 ) ;
#2 = CARTESIAN_POINT ( 'NONE',  ( 4.189777606611760026E-14, 7.423810924176142610E-33, 12.00000000000000000 ) ) ;
#3 = CC_DESIGN_PERSON_AND_ORGANIZATION_ASSIGNMENT ( #66, #210, ( #201 ) ) ;
#4 = EDGE_LOOP ( 'NONE', ( #17 ) ) ;
#5 = ORIENTED_EDGE ( 'NONE', *, *, #170, .T. ) ;
#6 = AXIS2_PLACEMENT_3D ( 'NONE', #106, #150, #111 ) ;
#7 = DIRECTION ( 'NONE',  ( 3.491481338843133355E-15, -1.224646799147353207E-16, 1.000000000000000000 ) ) ;
#8 = VERTEX_POINT ( 'NONE', #206 ) ;
#9 = CARTESIAN_POINT ( 'NONE',  ( 1.319779946082704535E-13, 0.9999999999999963363, 37.79999999999999716 ) ) ;
#10 = PERSON_AND_ORGANIZATION_ROLE ( 'creator' ) ;
#11 = DESIGN_CONTEXT ( 'detailed design', #47, 'design' ) ;
#12 = VERTEX_POINT ( 'NONE', #153 ) ;
#13 = PERSON_AND_ORGANIZATION ( #121, #139 ) ;
#14 = ADVANCED_FACE ( 'NONE', ( #87 ), #196, .F. ) ;
#15 = CALENDAR_DATE ( 2021, 7, 10 ) ;
#16 = AXIS2_PLACEMENT_3D ( 'NONE', #198, #126, #156 ) ;
#17 = ORIENTED_EDGE ( 'NONE', *, *, #114, .F. ) ;
#18 = CONICAL_SURFACE ( 'NONE', #132, 0.9999999999999970024, 0.5235987755982632885 ) ;
#19 = DIRECTION ( 'NONE',  ( -3.491481338843133355E-15, 1.224646799147353207E-16, -1.000000000000000000 ) ) ;
#20 = DIRECTION ( 'NONE',  ( -3.491481338843133355E-15, 1.224646799147353207E-16, -1.000000000000000000 ) ) ;
#21 = ORIENTED_EDGE ( 'NONE', *, *, #197, .F. ) ;
#22 =( GEOMETRIC_REPRESENTATION_CONTEXT ( 3 ) GLOBAL_UNCERTAINTY_ASSIGNED_CONTEXT ( ( #133 ) ) GLOBAL_UNIT_ASSIGNED_CONTEXT ( ( #63, #29, #154 ) ) REPRESENTATION_CONTEXT ( 'NONE', 'WORKASPACE' ) );
#23 = EDGE_LOOP ( 'NONE', ( #60 ) ) ;
#24 = APPROVAL ( #159, 'UNSPECIFIED' ) ;
#25 = PERSON_AND_ORGANIZATION ( #121, #139 ) ;
#26 = AXIS2_PLACEMENT_3D ( 'NONE', #91, #20, #112 ) ;
#27 = CC_DESIGN_APPROVAL ( #35, ( #214 ) ) ;
#28 = PERSON_AND_ORGANIZATION ( #121, #139 ) ;
#29 =( NAMED_UNIT ( * ) PLANE_ANGLE_UNIT ( ) SI_UNIT ( $, .RADIAN. ) );
#30 = ORIENTED_EDGE ( 'NONE', *, *, #43, .F. ) ;
#31 = LOCAL_TIME ( 15, 48, 3.000000000000000000, #100 ) ;
#32 = FACE_OUTER_BOUND ( 'NONE', #193, .T. ) ;
#33 = DIRECTION ( 'NONE',  ( 0.0000000000000000000, 1.000000000000000000, 0.0000000000000000000 ) ) ;
#34 = CARTESIAN_POINT ( 'NONE',  ( 4.189777606611760026E-14, 7.423810924176142610E-33, 12.00000000000000000 ) ) ;
#35 = APPROVAL ( #102, 'UNSPECIFIED' ) ;
#36 = SECURITY_CLASSIFICATION_LEVEL ( 'unclassified' ) ;
#37 = CARTESIAN_POINT ( 'NONE',  ( 0.0000000000000000000, 0.0000000000000000000, 0.0000000000000000000 ) ) ;
#38 = ORIENTED_EDGE ( 'NONE', *, *, #197, .T. ) ;
#39 = CC_DESIGN_PERSON_AND_ORGANIZATION_ASSIGNMENT ( #13, #84, ( #163 ) ) ;
#40 = CIRCLE ( 'NONE', #186, 0.9899999999999958833 ) ;
#41 = PERSON_AND_ORGANIZATION ( #121, #139 ) ;
#42 = CARTESIAN_POINT ( 'NONE',  ( 1.326762908760390423E-13, 0.7999999999999963807, 38.00000000000000000 ) ) ;
#43 = EDGE_CURVE ( 'NONE', #8, #8, #131, .T. ) ;
#44 = DIRECTION ( 'NONE',  ( 0.0000000000000000000, 0.0000000000000000000, 1.000000000000000000 ) ) ;
#45 = PERSON_AND_ORGANIZATION ( #121, #139 ) ;
#46 = PRODUCT_RELATED_PRODUCT_CATEGORY ( 'detail', '', ( #165 ) ) ;
#47 = APPLICATION_CONTEXT ( 'configuration controlled 3d designs of mechanical parts and assemblies' ) ;
#48 = CLOSED_SHELL ( 'NONE', ( #68, #55, #149 ) ) ;
#49 = AXIS2_PLACEMENT_3D ( 'NONE', #74, #19, #141 ) ;
#50 = DIRECTION ( 'NONE',  ( -3.491481338843133355E-15, 1.224646799147353207E-16, -1.000000000000000000 ) ) ;
#51 = PERSON_AND_ORGANIZATION ( #121, #139 ) ;
#52 = FACE_OUTER_BOUND ( 'NONE', #56, .T. ) ;
#53 = EDGE_LOOP ( 'NONE', ( #155 ) ) ;
#54 = DIRECTION ( 'NONE',  ( -3.491481338843133355E-15, 1.224646799147353207E-16, -1.000000000000000000 ) ) ;
#55 = ADVANCED_FACE ( 'NONE', ( #215, #92 ), #183, .T. ) ;
#56 = EDGE_LOOP ( 'NONE', ( #38 ) ) ;
#57 = MANIFOLD_SOLID_BREP ( 'Corps-Déplacer/Copier1[2]', #48 ) ;
#58 = LOCAL_TIME ( 15, 48, 3.000000000000000000, #194 ) ;
#59 = COORDINATED_UNIVERSAL_TIME_OFFSET ( 1, 0, .AHEAD. ) ;
#60 = ORIENTED_EDGE ( 'NONE', *, *, #90, .F. ) ;
#61 = DIRECTION ( 'NONE',  ( 1.000000000000000000, 0.0000000000000000000, 0.0000000000000000000 ) ) ;
#62 = CARTESIAN_POINT ( 'NONE',  ( 0.0000000000000000000, 0.0000000000000000000, 0.0000000000000000000 ) ) ;
#63 =( LENGTH_UNIT ( ) NAMED_UNIT ( * ) SI_UNIT ( .MILLI., .METRE. ) );
#64 = CALENDAR_DATE ( 2021, 7, 10 ) ;
#65 = FACE_OUTER_BOUND ( 'NONE', #53, .T. ) ;
#66 = PERSON_AND_ORGANIZATION ( #121, #139 ) ;
#67 = LOCAL_TIME ( 15, 48, 3.000000000000000000, #151 ) ;
#68 = ADVANCED_FACE ( 'NONE', ( #125 ), #219, .T. ) ;
#69 = DIRECTION ( 'NONE',  ( 0.0000000000000000000, 1.000000000000000000, 0.0000000000000000000 ) ) ;
#70 = COORDINATED_UNIVERSAL_TIME_OFFSET ( 1, 0, .AHEAD. ) ;
#71 = ORIENTED_EDGE ( 'NONE', *, *, #178, .F. ) ;
#72 = APPROVAL_DATE_TIME ( #180, #24 ) ;
#73 = CC_DESIGN_APPROVAL ( #122, ( #163 ) ) ;
#74 = CARTESIAN_POINT ( 'NONE',  ( 2.076914702194665076E-15, -7.284836134875442972E-17, 0.5948520128372873916 ) ) ;
#75 = CC_DESIGN_PERSON_AND_ORGANIZATION_ASSIGNMENT ( #45, #103, ( #165 ) ) ;
#76 = APPROVAL_PERSON_ORGANIZATION ( #28, #35, #190 ) ;
#77 = ADVANCED_BREP_SHAPE_REPRESENTATION ( '44254', ( #136, #57, #116 ), #22 ) ;
#78 = DATE_AND_TIME ( #15, #31 ) ;
#79 = CC_DESIGN_PERSON_AND_ORGANIZATION_ASSIGNMENT ( #137, #174, ( #163 ) ) ;
#80 = APPROVAL_STATUS ( 'not_yet_approved' ) ;
#81 = AXIS2_PLACEMENT_3D ( 'NONE', #128, #50, #69 ) ;
#82 = CONICAL_SURFACE ( 'NONE', #16, 0.8000000000000010436, 0.7853981633974510546 ) ;
#83 = CARTESIAN_POINT ( 'NONE',  ( 4.195825029684315666E-14, 0.9999999999999954481, 12.01732050807569152 ) ) ;
#84 = PERSON_AND_ORGANIZATION_ROLE ( 'creator' ) ;
#85 = VERTEX_POINT ( 'NONE', #42 ) ;
#86 = AXIS2_PLACEMENT_3D ( 'NONE', #216, #7, #143 ) ;
#87 = FACE_OUTER_BOUND ( 'NONE', #181, .T. ) ;
#88 = SHAPE_DEFINITION_REPRESENTATION ( #217, #77 ) ;
#89 = DIRECTION ( 'NONE',  ( -4.275831445896958607E-31, -1.000000000000000000, -1.224646799147353207E-16 ) ) ;
#90 = EDGE_CURVE ( 'NONE', #12, #12, #176, .T. ) ;
#91 = CARTESIAN_POINT ( 'NONE',  ( 1.326762908760390423E-13, 5.999039130647368167E-33, 38.00000000000000000 ) ) ;
#92 = FACE_OUTER_BOUND ( 'NONE', #179, .T. ) ;
#93 = DIRECTION ( 'NONE',  ( -3.491481338843133355E-15, 1.224646799147353207E-16, -1.000000000000000000 ) ) ;
#94 = LOCAL_TIME ( 15, 48, 3.000000000000000000, #70 ) ;
#95 = DIRECTION ( 'NONE',  ( 0.0000000000000000000, 1.000000000000000000, 0.0000000000000000000 ) ) ;
#96 = ADVANCED_FACE ( 'NONE', ( #213, #199 ), #82, .T. ) ;
#97 = DIRECTION ( 'NONE',  ( 0.0000000000000000000, 1.000000000000000000, 0.0000000000000000000 ) ) ;
#98 = CC_DESIGN_PERSON_AND_ORGANIZATION_ASSIGNMENT ( #25, #10, ( #214 ) ) ;
#99 = APPROVAL_DATE_TIME ( #203, #122 ) ;
#100 = COORDINATED_UNIVERSAL_TIME_OFFSET ( 1, 0, .AHEAD. ) ;
#101 = EDGE_LOOP ( 'NONE', ( #21 ) ) ;
#102 = APPROVAL_STATUS ( 'not_yet_approved' ) ;
#103 = PERSON_AND_ORGANIZATION_ROLE ( 'design_owner' ) ;
#104 = AXIS2_PLACEMENT_3D ( 'NONE', #160, #177, #95 ) ;
#105 = PLANE ( 'NONE',  #1 ) ;
#106 = CARTESIAN_POINT ( 'NONE',  ( 1.326762908760390423E-13, -4.653657836759941941E-15, 38.00000000000000000 ) ) ;
#107 = DIRECTION ( 'NONE',  ( 3.491481338843133355E-15, -1.224646799147353207E-16, 1.000000000000000000 ) ) ;
#108 = DATE_TIME_ROLE ( 'classification_date' ) ;
#109 = CARTESIAN_POINT ( 'NONE',  ( 0.0000000000000000000, 0.0000000000000000000, 0.0000000000000000000 ) ) ;
#110 = DIRECTION ( 'NONE',  ( -3.491481338843133355E-15, 1.224646799147353207E-16, -1.000000000000000000 ) ) ;
#111 = DIRECTION ( 'NONE',  ( 0.0000000000000000000, 1.000000000000000000, 0.0000000000000000000 ) ) ;
#112 = DIRECTION ( 'NONE',  ( 4.275831445896958607E-31, 1.000000000000000000, 1.224646799147353207E-16 ) ) ;
#113 = APPROVAL_PERSON_ORGANIZATION ( #41, #122, #117 ) ;
#114 = EDGE_CURVE ( 'NONE', #119, #119, #120, .T. ) ;
#115 = DIRECTION ( 'NONE',  ( 3.491481338843133355E-15, -1.224646799147353207E-16, 1.000000000000000000 ) ) ;
#116 = AXIS2_PLACEMENT_3D ( 'NONE', #62, #44, #61 ) ;
#117 = APPROVAL_ROLE ( '' ) ;
#118 = APPLICATION_PROTOCOL_DEFINITION ( 'international standard', 'config_control_design', 1994, #169 ) ;
#119 = VERTEX_POINT ( 'NONE', #9 ) ;
#120 = CIRCLE ( 'NONE', #104, 1.000000000000000888 ) ;
#121 = PERSON ( 'UNSPECIFIED', 'UNSPECIFIED', 'UNSPECIFIED', ('UNSPECIFIED'), ('UNSPECIFIED'), ('UNSPECIFIED') ) ;
#122 = APPROVAL ( #80, 'UNSPECIFIED' ) ;
#123 = CIRCLE ( 'NONE', #6, 0.8000000000000010436 ) ;
#124 = CYLINDRICAL_SURFACE ( 'NONE', #147, 0.9999999999999988898 ) ;
#125 = FACE_OUTER_BOUND ( 'NONE', #221, .T. ) ;
#126 = DIRECTION ( 'NONE',  ( -3.491481338843133355E-15, 1.224646799147353207E-16, -1.000000000000000000 ) ) ;
#127 = FACE_OUTER_BOUND ( 'NONE', #135, .T. ) ;
#128 = CARTESIAN_POINT ( 'NONE',  ( 4.189777606611760026E-14, -1.469576158976823947E-15, 12.00000000000000000 ) ) ;
#129 = FACE_OUTER_BOUND ( 'NONE', #191, .T. ) ;
#130 = CARTESIAN_POINT ( 'NONE',  ( 4.195825029684315666E-14, -1.471697309454274036E-15, 12.01732050807569152 ) ) ;
#131 = CIRCLE ( 'NONE', #81, 0.9899999999999958833 ) ;
#132 = AXIS2_PLACEMENT_3D ( 'NONE', #130, #115, #166 ) ;
#133 = UNCERTAINTY_MEASURE_WITH_UNIT (LENGTH_MEASURE( 1.000000000000000082E-05 ), #63, 'distance_accuracy_value', 'NONE');
#134 = CALENDAR_DATE ( 2021, 7, 10 ) ;
#135 = EDGE_LOOP ( 'NONE', ( #148 ) ) ;
#136 = MANIFOLD_SOLID_BREP ( 'Corps-Déplacer/Copier1[1]', #172 ) ;
#137 = PERSON_AND_ORGANIZATION ( #121, #139 ) ;
#138 = EDGE_LOOP ( 'NONE', ( #145 ) ) ;
#139 = ORGANIZATION ( 'UNSPECIFIED', 'UNSPECIFIED', '' ) ;
#140 = ADVANCED_FACE ( 'NONE', ( #127, #65 ), #124, .T. ) ;
#141 = DIRECTION ( 'NONE',  ( 3.890767564418683918E-31, 1.000000000000000000, 1.095153709581324824E-16 ) ) ;
#142 = DIRECTION ( 'NONE',  ( 3.491481338843133355E-15, -1.224646799147353207E-16, 1.000000000000000000 ) ) ;
#143 = DIRECTION ( 'NONE',  ( -3.890767564418683918E-31, -1.000000000000000000, -1.095153709581324824E-16 ) ) ;
#144 = DATE_AND_TIME ( #64, #94 ) ;
#145 = ORIENTED_EDGE ( 'NONE', *, *, #178, .T. ) ;
#146 = AXIS2_PLACEMENT_3D ( 'NONE', #109, #54, #164 ) ;
#147 = AXIS2_PLACEMENT_3D ( 'NONE', #37, #110, #161 ) ;
#148 = ORIENTED_EDGE ( 'NONE', *, *, #170, .F. ) ;
#149 = ADVANCED_FACE ( 'NONE', ( #32 ), #105, .T. ) ;
#150 = DIRECTION ( 'NONE',  ( -3.491481338843133355E-15, 1.224646799147353207E-16, -1.000000000000000000 ) ) ;
#151 = COORDINATED_UNIVERSAL_TIME_OFFSET ( 1, 0, .AHEAD. ) ;
#152 = CC_DESIGN_SECURITY_CLASSIFICATION ( #201, ( #163 ) ) ;
#153 = CARTESIAN_POINT ( 'NONE',  ( 2.076914702194665471E-15, 0.9899999999999934408, 0.5948520128372875027 ) ) ;
#154 =( NAMED_UNIT ( * ) SI_UNIT ( $, .STERADIAN. ) SOLID_ANGLE_UNIT ( ) );
#155 = ORIENTED_EDGE ( 'NONE', *, *, #114, .T. ) ;
#156 = DIRECTION ( 'NONE',  ( 0.0000000000000000000, 1.000000000000000000, 0.0000000000000000000 ) ) ;
#157 = LOCAL_TIME ( 15, 48, 3.000000000000000000, #59 ) ;
#158 = CARTESIAN_POINT ( 'NONE',  ( 4.195825029684315666E-14, -1.471697309454274036E-15, 12.01732050807569152 ) ) ;
#159 = APPROVAL_STATUS ( 'not_yet_approved' ) ;
#160 = CARTESIAN_POINT ( 'NONE',  ( 1.319779946082704535E-13, -4.629164900776995227E-15, 37.79999999999999716 ) ) ;
#161 = DIRECTION ( 'NONE',  ( 4.275831445896957731E-31, 1.000000000000000000, 1.224646799147353454E-16 ) ) ;
#162 = ADVANCED_FACE ( 'NONE', ( #52 ), #195, .F. ) ;
#163 = PRODUCT_DEFINITION_FORMATION_WITH_SPECIFIED_SOURCE ( 'ANY', '', #165, .NOT_KNOWN. ) ;
#164 = DIRECTION ( 'NONE',  ( 4.275831445896959482E-31, 1.000000000000000000, 1.224646799147353207E-16 ) ) ;
#165 = PRODUCT ( '44254', '44254', '', ( #188 ) ) ;
#166 = DIRECTION ( 'NONE',  ( 0.0000000000000000000, -1.000000000000000000, 0.0000000000000000000 ) ) ;
#167 = FACE_BOUND ( 'NONE', #101, .T. ) ;
#168 = APPROVAL_DATE_TIME ( #171, #35 ) ;
#169 = APPLICATION_CONTEXT ( 'configuration controlled 3d designs of mechanical parts and assemblies' ) ;
#170 = EDGE_CURVE ( 'NONE', #202, #202, #220, .T. ) ;
#171 = DATE_AND_TIME ( #223, #67 ) ;
#172 = CLOSED_SHELL ( 'NONE', ( #162, #218, #140, #96, #14 ) ) ;
#173 = DATE_TIME_ROLE ( 'creation_date' ) ;
#174 = PERSON_AND_ORGANIZATION_ROLE ( 'design_supplier' ) ;
#175 = CALENDAR_DATE ( 2021, 7, 10 ) ;
#176 = CIRCLE ( 'NONE', #49, 0.9899999999999934408 ) ;
#177 = DIRECTION ( 'NONE',  ( -3.491481338843133355E-15, 1.224646799147353207E-16, -1.000000000000000000 ) ) ;
#178 = EDGE_CURVE ( 'NONE', #85, #85, #123, .T. ) ;
#179 = EDGE_LOOP ( 'NONE', ( #209 ) ) ;
#180 = DATE_AND_TIME ( #175, #58 ) ;
#181 = EDGE_LOOP ( 'NONE', ( #71 ) ) ;
#182 = CARTESIAN_POINT ( 'NONE',  ( 4.189777606611760026E-14, -1.469576158976823947E-15, 12.00000000000000000 ) ) ;
#183 = CYLINDRICAL_SURFACE ( 'NONE', #146, 0.9899999999999947731 ) ;
#184 = CC_DESIGN_APPROVAL ( #24, ( #201 ) ) ;
#185 = CC_DESIGN_DATE_AND_TIME_ASSIGNMENT ( #144, #108, ( #201 ) ) ;
#186 = AXIS2_PLACEMENT_3D ( 'NONE', #182, #93, #97 ) ;
#187 = VERTEX_POINT ( 'NONE', #192 ) ;
#188 = MECHANICAL_CONTEXT ( 'NONE', #169, 'mechanical' ) ;
#189 = AXIS2_PLACEMENT_3D ( 'NONE', #34, #107, #89 ) ;
#190 = APPROVAL_ROLE ( '' ) ;
#191 = EDGE_LOOP ( 'NONE', ( #5 ) ) ;
#192 = CARTESIAN_POINT ( 'NONE',  ( 4.189777606611760026E-14, 0.9899999999999943290, 12.00000000000000000 ) ) ;
#193 = EDGE_LOOP ( 'NONE', ( #30 ) ) ;
#194 = COORDINATED_UNIVERSAL_TIME_OFFSET ( 1, 0, .AHEAD. ) ;
#195 = PLANE ( 'NONE',  #189 ) ;
#196 = PLANE ( 'NONE',  #26 ) ;
#197 = EDGE_CURVE ( 'NONE', #187, #187, #40, .T. ) ;
#198 = CARTESIAN_POINT ( 'NONE',  ( 1.326762908760390423E-13, -4.653657836759941941E-15, 38.00000000000000000 ) ) ;
#199 = FACE_BOUND ( 'NONE', #138, .T. ) ;
#200 = APPROVAL_PERSON_ORGANIZATION ( #51, #24, #212 ) ;
#201 = SECURITY_CLASSIFICATION ( '', '', #36 ) ;
#202 = VERTEX_POINT ( 'NONE', #83 ) ;
#203 = DATE_AND_TIME ( #134, #157 ) ;
#204 = APPLICATION_PROTOCOL_DEFINITION ( 'international standard', 'config_control_design', 1994, #47 ) ;
#205 = ORIENTED_EDGE ( 'NONE', *, *, #90, .T. ) ;
#206 = CARTESIAN_POINT ( 'NONE',  ( 4.189777606611760026E-14, 0.9899999999999943290, 12.00000000000000000 ) ) ;
#207 = DIRECTION ( 'NONE',  ( -3.491481338843133355E-15, 1.224646799147353207E-16, -1.000000000000000000 ) ) ;
#208 = AXIS2_PLACEMENT_3D ( 'NONE', #158, #207, #33 ) ;
#209 = ORIENTED_EDGE ( 'NONE', *, *, #43, .T. ) ;
#210 = PERSON_AND_ORGANIZATION_ROLE ( 'classification_officer' ) ;
#211 = DIRECTION ( 'NONE',  ( -4.275831445896958607E-31, -1.000000000000000000, -1.224646799147353207E-16 ) ) ;
#212 = APPROVAL_ROLE ( '' ) ;
#213 = FACE_OUTER_BOUND ( 'NONE', #4, .T. ) ;
#214 = PRODUCT_DEFINITION ( 'UNKNOWN', '', #163, #11 ) ;
#215 = FACE_OUTER_BOUND ( 'NONE', #23, .T. ) ;
#216 = CARTESIAN_POINT ( 'NONE',  ( 2.076914702194665076E-15, -7.284836134875442972E-17, 0.5948520128372873916 ) ) ;
#217 = PRODUCT_DEFINITION_SHAPE ( 'NONE', 'NONE',  #214 ) ;
#218 = ADVANCED_FACE ( 'NONE', ( #167, #129 ), #18, .T. ) ;
#219 = CONICAL_SURFACE ( 'NONE', #86, 0.9899999999999934408, 1.029744258676649649 ) ;
#220 = CIRCLE ( 'NONE', #208, 0.9999999999999970024 ) ;
#221 = EDGE_LOOP ( 'NONE', ( #205 ) ) ;
#222 = CC_DESIGN_DATE_AND_TIME_ASSIGNMENT ( #78, #173, ( #214 ) ) ;
#223 = CALENDAR_DATE ( 2021, 7, 10 ) ;
ENDSEC;
END-ISO-10303-21;
