ISO-10303-21;
HEADER;
FILE_DESCRIPTION (( 'STEP AP203' ),
    '1' );
FILE_NAME ('44058.step',
    '2021-11-01T09:16:23',
    ( '' ),
    ( '' ),
    'SwSTEP 2.0',
    'SolidWorks 2019',
    '' );
FILE_SCHEMA (( 'CONFIG_CONTROL_DESIGN' ));
ENDSEC;

DATA;
#1 = ORIENTED_EDGE ( 'NONE', *, *, #114, .T. ) ;
#2 = VERTEX_POINT ( 'NONE', #77 ) ;
#3 = VERTEX_POINT ( 'NONE', #31 ) ;
#4 = AXIS2_PLACEMENT_3D ( 'NONE', #183, #168, #207 ) ;
#5 = ADVANCED_FACE ( 'NONE', ( #13, #131 ), #214, .F. ) ;
#6 = PERSON_AND_ORGANIZATION_ROLE ( 'classification_officer' ) ;
#7 = CARTESIAN_POINT ( 'NONE',  ( 2.444036937190193033E-14, -8.592624733039555931E-16, 6.999999999999999112 ) ) ;
#8 = PERSON_AND_ORGANIZATION_ROLE ( 'design_supplier' ) ;
#9 = CARTESIAN_POINT ( 'NONE',  ( 1.316288464743861212E-13, -4.616918432785521081E-15, 37.69999999999999574 ) ) ;
#10 = APPROVAL ( #174, 'UNSPECIFIED' ) ;
#11 = DIRECTION ( 'NONE',  ( 3.491481338843133355E-15, -1.227517819005651059E-16, 1.000000000000000000 ) ) ;
#12 = ORIENTED_EDGE ( 'NONE', *, *, #158, .F. ) ;
#13 = FACE_OUTER_BOUND ( 'NONE', #187, .T. ) ;
#14 = PERSON_AND_ORGANIZATION_ROLE ( 'creator' ) ;
#15 = AXIS2_PLACEMENT_3D ( 'NONE', #178, #11, #213 ) ;
#16 = ORIENTED_EDGE ( 'NONE', *, *, #149, .F. ) ;
#17 =( NAMED_UNIT ( * ) SI_UNIT ( $, .STERADIAN. ) SOLID_ANGLE_UNIT ( ) );
#18 = EDGE_CURVE ( 'NONE', #152, #152, #198, .T. ) ;
#19 = LOCAL_TIME ( 10, 16, 23.00000000000000000, #22 ) ;
#20 = CC_DESIGN_PERSON_AND_ORGANIZATION_ASSIGNMENT ( #54, #53, ( #105 ) ) ;
#21 = AXIS2_PLACEMENT_3D ( 'NONE', #30, #68, #208 ) ;
#22 = COORDINATED_UNIVERSAL_TIME_OFFSET ( 1, 0, .AHEAD. ) ;
#23 = DESIGN_CONTEXT ( 'detailed design', #173, 'design' ) ;
#24 = CARTESIAN_POINT ( 'NONE',  ( -6.413731847436034514E-31, 0.0000000000000000000, -1.836965810494968570E-16 ) ) ;
#25 = MANIFOLD_SOLID_BREP ( 'Corps-Déplacer/Copier1[1]', #121 ) ;
#26 = FACE_OUTER_BOUND ( 'NONE', #221, .T. ) ;
#27 = DIRECTION ( 'NONE',  ( -3.491481338843133355E-15, 1.224646799147353207E-16, -1.000000000000000000 ) ) ;
#28 = VERTEX_POINT ( 'NONE', #45 ) ;
#29 = PERSON_AND_ORGANIZATION ( #82, #126 ) ;
#30 = CARTESIAN_POINT ( 'NONE',  ( 0.0000000000000000000, 0.0000000000000000000, 0.0000000000000000000 ) ) ;
#31 = CARTESIAN_POINT ( 'NONE',  ( 1.316288464743861212E-13, 1.499999999999989120, 37.69999999999999574 ) ) ;
#32 = LOCAL_TIME ( 10, 16, 23.00000000000000000, #189 ) ;
#33 = FACE_OUTER_BOUND ( 'NONE', #43, .T. ) ;
#34 = SHAPE_DEFINITION_REPRESENTATION ( #159, #52 ) ;
#35 = AXIS2_PLACEMENT_3D ( 'NONE', #7, #116, #175 ) ;
#36 = ADVANCED_FACE ( 'NONE', ( #26 ), #179, .F. ) ;
#37 = DIRECTION ( 'NONE',  ( 3.491481338843133355E-15, -1.224646799147353207E-16, 1.000000000000000000 ) ) ;
#38 = FACE_OUTER_BOUND ( 'NONE', #206, .T. ) ;
#39 = CC_DESIGN_SECURITY_CLASSIFICATION ( #122, ( #105 ) ) ;
#40 = DIRECTION ( 'NONE',  ( 3.491481338843133355E-15, -1.227517819005651059E-16, 1.000000000000000000 ) ) ;
#41 = CC_DESIGN_DATE_AND_TIME_ASSIGNMENT ( #171, #83, ( #122 ) ) ;
#42 = DIRECTION ( 'NONE',  ( 0.0000000000000000000, 1.000000000000000000, 0.0000000000000000000 ) ) ;
#43 = EDGE_LOOP ( 'NONE', ( #50 ) ) ;
#44 = ORIENTED_EDGE ( 'NONE', *, *, #149, .T. ) ;
#45 = CARTESIAN_POINT ( 'NONE',  ( 1.326762908760390423E-13, 1.199999999999989297, 38.00000000000000000 ) ) ;
#46 = EDGE_LOOP ( 'NONE', ( #182 ) ) ;
#47 = DIRECTION ( 'NONE',  ( 3.491481338843133355E-15, -1.227517819005651059E-16, 1.000000000000000000 ) ) ;
#48 = DATE_TIME_ROLE ( 'creation_date' ) ;
#49 = APPROVAL ( #155, 'UNSPECIFIED' ) ;
#50 = ORIENTED_EDGE ( 'NONE', *, *, #137, .F. ) ;
#51 = VERTEX_POINT ( 'NONE', #132 ) ;
#52 = ADVANCED_BREP_SHAPE_REPRESENTATION ( '44058', ( #25, #172, #21 ), #169 ) ;
#53 = PERSON_AND_ORGANIZATION_ROLE ( 'creator' ) ;
#54 = PERSON_AND_ORGANIZATION ( #82, #126 ) ;
#55 = CC_DESIGN_PERSON_AND_ORGANIZATION_ASSIGNMENT ( #164, #14, ( #151 ) ) ;
#56 = DATE_AND_TIME ( #193, #146 ) ;
#57 = APPROVAL_DATE_TIME ( #56, #49 ) ;
#58 = DIRECTION ( 'NONE',  ( -4.285855558155652404E-31, -1.000000000000000000, -1.227517819005651059E-16 ) ) ;
#59 = AXIS2_PLACEMENT_3D ( 'NONE', #24, #40, #58 ) ;
#60 = CARTESIAN_POINT ( 'NONE',  ( 1.326762908760390423E-13, 8.998558695971030697E-33, 38.00000000000000000 ) ) ;
#61 = DIRECTION ( 'NONE',  ( 4.275831445896958607E-31, 1.000000000000000000, 1.224646799147353207E-16 ) ) ;
#62 = AXIS2_PLACEMENT_3D ( 'NONE', #98, #47, #109 ) ;
#63 = FACE_BOUND ( 'NONE', #202, .T. ) ;
#64 = CIRCLE ( 'NONE', #62, 1.049999999999999378 ) ;
#65 =( LENGTH_UNIT ( ) NAMED_UNIT ( * ) SI_UNIT ( .MILLI., .METRE. ) );
#66 = CALENDAR_DATE ( 2021, 1, 11 ) ;
#67 = APPLICATION_PROTOCOL_DEFINITION ( 'international standard', 'config_control_design', 1994, #190 ) ;
#68 = DIRECTION ( 'NONE',  ( 0.0000000000000000000, 0.0000000000000000000, 1.000000000000000000 ) ) ;
#69 = AXIS2_PLACEMENT_3D ( 'NONE', #85, #71, #143 ) ;
#70 = CARTESIAN_POINT ( 'NONE',  ( 3.367631098451397546E-14, -3.247126879542070426E-16, 9.645278813282237351 ) ) ;
#71 = DIRECTION ( 'NONE',  ( -3.491481338843133355E-15, 1.224646799147353207E-16, -1.000000000000000000 ) ) ;
#72 = CC_DESIGN_PERSON_AND_ORGANIZATION_ASSIGNMENT ( #115, #8, ( #105 ) ) ;
#73 = FACE_OUTER_BOUND ( 'NONE', #200, .T. ) ;
#74 = CC_DESIGN_DATE_AND_TIME_ASSIGNMENT ( #204, #48, ( #151 ) ) ;
#75 = CC_DESIGN_APPROVAL ( #49, ( #105 ) ) ;
#76 = ADVANCED_FACE ( 'NONE', ( #73 ), #125, .F. ) ;
#77 = CARTESIAN_POINT ( 'NONE',  ( 2.444036937190193033E-14, -1.050000000000000488, 6.999999999999999112 ) ) ;
#78 = CARTESIAN_POINT ( 'NONE',  ( 2.444036937190193033E-14, 0.0000000000000000000, 6.999999999999999112 ) ) ;
#79 = AXIS2_PLACEMENT_3D ( 'NONE', #60, #27, #61 ) ;
#80 = APPROVAL_ROLE ( '' ) ;
#81 = EDGE_CURVE ( 'NONE', #28, #28, #218, .T. ) ;
#82 = PERSON ( 'UNSPECIFIED', 'UNSPECIFIED', 'UNSPECIFIED', ('UNSPECIFIED'), ('UNSPECIFIED'), ('UNSPECIFIED') ) ;
#83 = DATE_TIME_ROLE ( 'classification_date' ) ;
#84 = DIRECTION ( 'NONE',  ( -3.491481338843133355E-15, 1.227517819005651059E-16, -1.000000000000000000 ) ) ;
#85 = CARTESIAN_POINT ( 'NONE',  ( 0.0000000000000000000, 0.0000000000000000000, 0.0000000000000000000 ) ) ;
#86 = CIRCLE ( 'NONE', #15, 1.049999999999999822 ) ;
#87 = ADVANCED_FACE ( 'NONE', ( #124, #107 ), #144, .T. ) ;
#88 = DIRECTION ( 'NONE',  ( 3.491481338843133355E-15, -1.224646799147353207E-16, 1.000000000000000000 ) ) ;
#89 = CARTESIAN_POINT ( 'NONE',  ( 2.444036937190193349E-14, 1.124819836996384448E-32, 7.000000000000000000 ) ) ;
#90 = MECHANICAL_CONTEXT ( 'NONE', #190, 'mechanical' ) ;
#91 = PRODUCT ( '44058', '44058', '', ( #90 ) ) ;
#92 = ORIENTED_EDGE ( 'NONE', *, *, #158, .T. ) ;
#93 = APPROVAL_STATUS ( 'not_yet_approved' ) ;
#94 = EDGE_LOOP ( 'NONE', ( #44 ) ) ;
#95 = LOCAL_TIME ( 10, 16, 23.00000000000000000, #150 ) ;
#96 = EDGE_LOOP ( 'NONE', ( #92 ) ) ;
#97 = CC_DESIGN_PERSON_AND_ORGANIZATION_ASSIGNMENT ( #140, #6, ( #122 ) ) ;
#98 = CARTESIAN_POINT ( 'NONE',  ( -1.070010393261396733E-30, 1.506981594003792548E-32, -3.064631568719578838E-16 ) ) ;
#99 = CONICAL_SURFACE ( 'NONE', #4, 1.199999999999993738, 0.7853981633974453924 ) ;
#100 = SECURITY_CLASSIFICATION_LEVEL ( 'unclassified' ) ;
#101 = UNCERTAINTY_MEASURE_WITH_UNIT (LENGTH_MEASURE( 1.000000000000000082E-05 ), #65, 'distance_accuracy_value', 'NONE');
#102 = DIRECTION ( 'NONE',  ( 0.0000000000000000000, 1.000000000000000000, 0.0000000000000000000 ) ) ;
#103 = DIRECTION ( 'NONE',  ( -4.275831445896958607E-31, -1.000000000000000000, -1.224646799147353207E-16 ) ) ;
#104 = DIRECTION ( 'NONE',  ( -3.491481338843133355E-15, 1.224646799147353207E-16, -1.000000000000000000 ) ) ;
#105 = PRODUCT_DEFINITION_FORMATION_WITH_SPECIFIED_SOURCE ( 'ANY', '', #91, .NOT_KNOWN. ) ;
#106 = FACE_OUTER_BOUND ( 'NONE', #184, .T. ) ;
#107 = FACE_OUTER_BOUND ( 'NONE', #127, .T. ) ;
#108 = APPROVAL_PERSON_ORGANIZATION ( #112, #49, #191 ) ;
#109 = DIRECTION ( 'NONE',  ( -4.285855558155652404E-31, -1.000000000000000000, -1.227517819005651059E-16 ) ) ;
#110 = DATE_AND_TIME ( #203, #142 ) ;
#111 = ADVANCED_FACE ( 'NONE', ( #106 ), #120, .T. ) ;
#112 = PERSON_AND_ORGANIZATION ( #82, #126 ) ;
#113 = AXIS2_PLACEMENT_3D ( 'NONE', #89, #141, #160 ) ;
#114 = EDGE_CURVE ( 'NONE', #2, #2, #86, .T. ) ;
#115 = PERSON_AND_ORGANIZATION ( #82, #126 ) ;
#116 = DIRECTION ( 'NONE',  ( 3.491481338843133355E-15, -1.227517819005651059E-16, 1.000000000000000000 ) ) ;
#117 = CALENDAR_DATE ( 2021, 1, 11 ) ;
#118 = AXIS2_PLACEMENT_3D ( 'NONE', #177, #88, #157 ) ;
#119 = DATE_AND_TIME ( #212, #32 ) ;
#120 = PLANE ( 'NONE',  #113 ) ;
#121 = CLOSED_SHELL ( 'NONE', ( #154, #205, #36, #5, #156 ) ) ;
#122 = SECURITY_CLASSIFICATION ( '', '', #100 ) ;
#123 = FACE_OUTER_BOUND ( 'NONE', #46, .T. ) ;
#124 = FACE_OUTER_BOUND ( 'NONE', #96, .T. ) ;
#125 = PLANE ( 'NONE',  #210 ) ;
#126 = ORGANIZATION ( 'UNSPECIFIED', 'UNSPECIFIED', '' ) ;
#127 = EDGE_LOOP ( 'NONE', ( #148 ) ) ;
#128 = APPLICATION_PROTOCOL_DEFINITION ( 'international standard', 'config_control_design', 1994, #173 ) ;
#129 = AXIS2_PLACEMENT_3D ( 'NONE', #70, #84, #215 ) ;
#130 = EDGE_LOOP ( 'NONE', ( #167 ) ) ;
#131 = FACE_OUTER_BOUND ( 'NONE', #94, .T. ) ;
#132 = CARTESIAN_POINT ( 'NONE',  ( -1.520025226867740082E-30, -1.049999999999999378, -4.353525278675512031E-16 ) ) ;
#133 = CARTESIAN_POINT ( 'NONE',  ( 2.444036937190193033E-14, -1.050000000000000488, 6.999999999999999112 ) ) ;
#134 = CC_DESIGN_APPROVAL ( #196, ( #151 ) ) ;
#135 = APPROVAL_PERSON_ORGANIZATION ( #201, #196, #163 ) ;
#136 = COORDINATED_UNIVERSAL_TIME_OFFSET ( 1, 0, .AHEAD. ) ;
#137 = EDGE_CURVE ( 'NONE', #3, #3, #181, .T. ) ;
#138 = DIRECTION ( 'NONE',  ( 3.491481338843133355E-15, -1.227517819005651059E-16, 1.000000000000000000 ) ) ;
#139 = APPROVAL_DATE_TIME ( #119, #10 ) ;
#140 = PERSON_AND_ORGANIZATION ( #82, #126 ) ;
#141 = DIRECTION ( 'NONE',  ( 3.491481338843133355E-15, -1.224646799147353207E-16, 1.000000000000000000 ) ) ;
#142 = LOCAL_TIME ( 10, 16, 23.00000000000000000, #222 ) ;
#143 = DIRECTION ( 'NONE',  ( 4.275831445896958607E-31, 1.000000000000000000, 1.224646799147353207E-16 ) ) ;
#144 = CYLINDRICAL_SURFACE ( 'NONE', #59, 1.049999999999999600 ) ;
#145 = CARTESIAN_POINT ( 'NONE',  ( -1.282754905350004587E-30, 4.499298539707956128E-32, -3.673956068672651857E-16 ) ) ;
#146 = LOCAL_TIME ( 10, 16, 23.00000000000000000, #136 ) ;
#147 = ORIENTED_EDGE ( 'NONE', *, *, #18, .T. ) ;
#148 = ORIENTED_EDGE ( 'NONE', *, *, #114, .F. ) ;
#149 = EDGE_CURVE ( 'NONE', #162, #162, #186, .T. ) ;
#150 = COORDINATED_UNIVERSAL_TIME_OFFSET ( 1, 0, .AHEAD. ) ;
#151 = PRODUCT_DEFINITION ( 'UNKNOWN', '', #105, #23 ) ;
#152 = VERTEX_POINT ( 'NONE', #133 ) ;
#153 = AXIS2_PLACEMENT_3D ( 'NONE', #78, #138, #209 ) ;
#154 = ADVANCED_FACE ( 'NONE', ( #123, #38 ), #176, .T. ) ;
#155 = APPROVAL_STATUS ( 'not_yet_approved' ) ;
#156 = ADVANCED_FACE ( 'NONE', ( #216 ), #195, .F. ) ;
#157 = DIRECTION ( 'NONE',  ( -4.275831445896958607E-31, -1.000000000000000000, -1.224646799147353207E-16 ) ) ;
#158 = EDGE_CURVE ( 'NONE', #51, #51, #64, .T. ) ;
#159 = PRODUCT_DEFINITION_SHAPE ( 'NONE', 'NONE',  #151 ) ;
#160 = DIRECTION ( 'NONE',  ( -4.275831445896958607E-31, -1.000000000000000000, -1.224646799147353207E-16 ) ) ;
#161 = AXIS2_PLACEMENT_3D ( 'NONE', #9, #104, #102 ) ;
#162 = VERTEX_POINT ( 'NONE', #166 ) ;
#163 = APPROVAL_ROLE ( '' ) ;
#164 = PERSON_AND_ORGANIZATION ( #82, #126 ) ;
#165 = AXIS2_PLACEMENT_3D ( 'NONE', #217, #197, #42 ) ;
#166 = CARTESIAN_POINT ( 'NONE',  ( 3.367631098451397546E-14, 1.499999999999991562, 9.645278813282237351 ) ) ;
#167 = ORIENTED_EDGE ( 'NONE', *, *, #18, .F. ) ;
#168 = DIRECTION ( 'NONE',  ( -3.491481338843133355E-15, 1.224646799147353207E-16, -1.000000000000000000 ) ) ;
#169 =( GEOMETRIC_REPRESENTATION_CONTEXT ( 3 ) GLOBAL_UNCERTAINTY_ASSIGNED_CONTEXT ( ( #101 ) ) GLOBAL_UNIT_ASSIGNED_CONTEXT ( ( #65, #188, #17 ) ) REPRESENTATION_CONTEXT ( 'NONE', 'WORKASPACE' ) );
#170 = PERSON_AND_ORGANIZATION ( #82, #126 ) ;
#171 = DATE_AND_TIME ( #117, #19 ) ;
#172 = MANIFOLD_SOLID_BREP ( 'Corps-Déplacer/Copier1[2]', #180 ) ;
#173 = APPLICATION_CONTEXT ( 'configuration controlled 3d designs of mechanical parts and assemblies' ) ;
#174 = APPROVAL_STATUS ( 'not_yet_approved' ) ;
#175 = DIRECTION ( 'NONE',  ( 0.0000000000000000000, -1.000000000000000000, 0.0000000000000000000 ) ) ;
#176 = CYLINDRICAL_SURFACE ( 'NONE', #69, 1.499999999999991784 ) ;
#177 = CARTESIAN_POINT ( 'NONE',  ( 2.444036937190193349E-14, 1.124819836996384448E-32, 7.000000000000000000 ) ) ;
#178 = CARTESIAN_POINT ( 'NONE',  ( 2.444036937190193033E-14, -8.592624733039555931E-16, 6.999999999999999112 ) ) ;
#179 = PLANE ( 'NONE',  #79 ) ;
#180 = CLOSED_SHELL ( 'NONE', ( #111, #87, #76 ) ) ;
#181 = CIRCLE ( 'NONE', #161, 1.499999999999993783 ) ;
#182 = ORIENTED_EDGE ( 'NONE', *, *, #137, .T. ) ;
#183 = CARTESIAN_POINT ( 'NONE',  ( 1.326762908760390423E-13, -4.653657836759941941E-15, 38.00000000000000000 ) ) ;
#184 = EDGE_LOOP ( 'NONE', ( #1 ) ) ;
#185 = APPROVAL_DATE_TIME ( #110, #196 ) ;
#186 = CIRCLE ( 'NONE', #129, 1.499999999999991784 ) ;
#187 = EDGE_LOOP ( 'NONE', ( #147 ) ) ;
#188 =( NAMED_UNIT ( * ) PLANE_ANGLE_UNIT ( ) SI_UNIT ( $, .RADIAN. ) );
#189 = COORDINATED_UNIVERSAL_TIME_OFFSET ( 1, 0, .AHEAD. ) ;
#190 = APPLICATION_CONTEXT ( 'configuration controlled 3d designs of mechanical parts and assemblies' ) ;
#191 = APPROVAL_ROLE ( '' ) ;
#192 = APPROVAL_PERSON_ORGANIZATION ( #170, #10, #80 ) ;
#193 = CALENDAR_DATE ( 2021, 1, 11 ) ;
#194 = PRODUCT_RELATED_PRODUCT_CATEGORY ( 'detail', '', ( #91 ) ) ;
#195 = PLANE ( 'NONE',  #118 ) ;
#196 = APPROVAL ( #93, 'UNSPECIFIED' ) ;
#197 = DIRECTION ( 'NONE',  ( -3.491481338843133355E-15, 1.224646799147353207E-16, -1.000000000000000000 ) ) ;
#198 = CIRCLE ( 'NONE', #35, 1.049999999999999822 ) ;
#199 = ORIENTED_EDGE ( 'NONE', *, *, #81, .T. ) ;
#200 = EDGE_LOOP ( 'NONE', ( #12 ) ) ;
#201 = PERSON_AND_ORGANIZATION ( #82, #126 ) ;
#202 = EDGE_LOOP ( 'NONE', ( #199 ) ) ;
#203 = CALENDAR_DATE ( 2021, 1, 11 ) ;
#204 = DATE_AND_TIME ( #66, #95 ) ;
#205 = ADVANCED_FACE ( 'NONE', ( #33, #63 ), #99, .T. ) ;
#206 = EDGE_LOOP ( 'NONE', ( #16 ) ) ;
#207 = DIRECTION ( 'NONE',  ( 0.0000000000000000000, 1.000000000000000000, 0.0000000000000000000 ) ) ;
#208 = DIRECTION ( 'NONE',  ( 1.000000000000000000, 0.0000000000000000000, 0.0000000000000000000 ) ) ;
#209 = DIRECTION ( 'NONE',  ( -4.348155369072392588E-31, -1.000000000000000000, -1.227517819005651059E-16 ) ) ;
#210 = AXIS2_PLACEMENT_3D ( 'NONE', #145, #37, #103 ) ;
#211 = CC_DESIGN_PERSON_AND_ORGANIZATION_ASSIGNMENT ( #29, #220, ( #91 ) ) ;
#212 = CALENDAR_DATE ( 2021, 1, 11 ) ;
#213 = DIRECTION ( 'NONE',  ( 0.0000000000000000000, -1.000000000000000000, 0.0000000000000000000 ) ) ;
#214 = TOROIDAL_SURFACE ( 'NONE', #153, 9.049999999999998934, 8.000000000000000000 ) ;
#215 = DIRECTION ( 'NONE',  ( 0.0000000000000000000, 1.000000000000000000, 0.0000000000000000000 ) ) ;
#216 = FACE_OUTER_BOUND ( 'NONE', #130, .T. ) ;
#217 = CARTESIAN_POINT ( 'NONE',  ( 1.326762908760390423E-13, -4.653657836759941941E-15, 38.00000000000000000 ) ) ;
#218 = CIRCLE ( 'NONE', #165, 1.199999999999993738 ) ;
#219 = ORIENTED_EDGE ( 'NONE', *, *, #81, .F. ) ;
#220 = PERSON_AND_ORGANIZATION_ROLE ( 'design_owner' ) ;
#221 = EDGE_LOOP ( 'NONE', ( #219 ) ) ;
#222 = COORDINATED_UNIVERSAL_TIME_OFFSET ( 1, 0, .AHEAD. ) ;
#223 = CC_DESIGN_APPROVAL ( #10, ( #122 ) ) ;
ENDSEC;
END-ISO-10303-21;
