ISO-10303-21;
HEADER;
FILE_DESCRIPTION (( 'STEP AP203' ),
    '1' );
FILE_NAME ('44015.step',
    '2021-10-07T13:48:02',
    ( '' ),
    ( '' ),
    'SwSTEP 2.0',
    'SolidWorks 2019',
    '' );
FILE_SCHEMA (( 'CONFIG_CONTROL_DESIGN' ));
ENDSEC;

DATA;
#1 = EDGE_LOOP ( 'NONE', ( #155 ) ) ;
#2 = EDGE_LOOP ( 'NONE', ( #208 ) ) ;
#3 = COORDINATED_UNIVERSAL_TIME_OFFSET ( 1, 0, .AHEAD. ) ;
#4 = ORIENTED_EDGE ( 'NONE', *, *, #109, .T. ) ;
#5 = ADVANCED_FACE ( 'NONE', ( #127, #193 ), #38, .T. ) ;
#6 = PERSON_AND_ORGANIZATION ( #154, #132 ) ;
#7 = DIRECTION ( 'NONE',  ( 0.0000000000000000000, 1.000000000000000000, 0.0000000000000000000 ) ) ;
#8 = AXIS2_PLACEMENT_3D ( 'NONE', #13, #133, #198 ) ;
#9 = CARTESIAN_POINT ( 'NONE',  ( 1.326762908760390423E-13, 0.7999999999999963807, 38.00000000000000000 ) ) ;
#10 = LOCAL_TIME ( 15, 48, 2.000000000000000000, #94 ) ;
#11 = DIRECTION ( 'NONE',  ( 0.0000000000000000000, 1.000000000000000000, 0.0000000000000000000 ) ) ;
#12 = FACE_OUTER_BOUND ( 'NONE', #145, .T. ) ;
#13 = CARTESIAN_POINT ( 'NONE',  ( 1.751741188214688974E-15, -6.144280982445439365E-17, 0.5017186168880142239 ) ) ;
#14 = CIRCLE ( 'NONE', #174, 1.000000000000000888 ) ;
#15 = ADVANCED_FACE ( 'NONE', ( #103 ), #65, .F. ) ;
#16 = APPROVAL_ROLE ( '' ) ;
#17 = PRODUCT ( '44015', '44015', '', ( #32 ) ) ;
#18 = CARTESIAN_POINT ( 'NONE',  ( 4.189777606611760026E-14, 0.8349999999999946354, 12.00000000000000000 ) ) ;
#19 = APPROVAL_PERSON_ORGANIZATION ( #176, #90, #172 ) ;
#20 = EDGE_LOOP ( 'NONE', ( #4 ) ) ;
#21 = EDGE_LOOP ( 'NONE', ( #110 ) ) ;
#22 = EDGE_LOOP ( 'NONE', ( #192 ) ) ;
#23 = VERTEX_POINT ( 'NONE', #95 ) ;
#24 = APPROVAL_DATE_TIME ( #46, #90 ) ;
#25 = CARTESIAN_POINT ( 'NONE',  ( 4.189777606611760026E-14, 6.261497092613202690E-33, 12.00000000000000000 ) ) ;
#26 = AXIS2_PLACEMENT_3D ( 'NONE', #165, #117, #82 ) ;
#27 = ADVANCED_BREP_SHAPE_REPRESENTATION ( '44015', ( #206, #55, #183 ), #180 ) ;
#28 = DIRECTION ( 'NONE',  ( 4.275831445896958607E-31, 1.000000000000000000, 1.224646799147353207E-16 ) ) ;
#29 = AXIS2_PLACEMENT_3D ( 'NONE', #185, #129, #60 ) ;
#30 = CYLINDRICAL_SURFACE ( 'NONE', #72, 0.9999999999999988898 ) ;
#31 = DIRECTION ( 'NONE',  ( -3.491481338843133355E-15, 1.224646799147353207E-16, -1.000000000000000000 ) ) ;
#32 = MECHANICAL_CONTEXT ( 'NONE', #86, 'mechanical' ) ;
#33 = CLOSED_SHELL ( 'NONE', ( #79, #152, #40, #216, #15 ) ) ;
#34 = ORIENTED_EDGE ( 'NONE', *, *, #56, .F. ) ;
#35 = APPLICATION_CONTEXT ( 'configuration controlled 3d designs of mechanical parts and assemblies' ) ;
#36 = ORIENTED_EDGE ( 'NONE', *, *, #66, .F. ) ;
#37 = APPROVAL_ROLE ( '' ) ;
#38 = CYLINDRICAL_SURFACE ( 'NONE', #191, 0.8349999999999948574 ) ;
#39 = APPROVAL_DATE_TIME ( #116, #106 ) ;
#40 = ADVANCED_FACE ( 'NONE', ( #50, #12 ), #30, .T. ) ;
#41 = APPROVAL_PERSON_ORGANIZATION ( #85, #188, #16 ) ;
#42 = SECURITY_CLASSIFICATION_LEVEL ( 'unclassified' ) ;
#43 = CARTESIAN_POINT ( 'NONE',  ( 4.189777606611760026E-14, 0.8349999999999946354, 12.00000000000000000 ) ) ;
#44 = DIRECTION ( 'NONE',  ( -3.491481338843133355E-15, 1.224646799147353207E-16, -1.000000000000000000 ) ) ;
#45 = CC_DESIGN_PERSON_AND_ORGANIZATION_ASSIGNMENT ( #59, #98, ( #166 ) ) ;
#46 = DATE_AND_TIME ( #160, #142 ) ;
#47 = AXIS2_PLACEMENT_3D ( 'NONE', #203, #49, #147 ) ;
#48 = CARTESIAN_POINT ( 'NONE',  ( 1.326762908760390423E-13, 5.999039130647368167E-33, 38.00000000000000000 ) ) ;
#49 = DIRECTION ( 'NONE',  ( 3.491481338843133355E-15, -1.224646799147353207E-16, 1.000000000000000000 ) ) ;
#50 = FACE_OUTER_BOUND ( 'NONE', #190, .T. ) ;
#51 = DIRECTION ( 'NONE',  ( 1.000000000000000000, 0.0000000000000000000, 0.0000000000000000000 ) ) ;
#52 = CLOSED_SHELL ( 'NONE', ( #118, #5, #212 ) ) ;
#53 = SECURITY_CLASSIFICATION ( '', '', #42 ) ;
#54 = CALENDAR_DATE ( 2021, 7, 10 ) ;
#55 = MANIFOLD_SOLID_BREP ( 'Corps-Déplacer/Copier1[2]', #52 ) ;
#56 = EDGE_CURVE ( 'NONE', #197, #197, #200, .T. ) ;
#57 = AXIS2_PLACEMENT_3D ( 'NONE', #219, #61, #7 ) ;
#58 = EDGE_LOOP ( 'NONE', ( #36 ) ) ;
#59 = PERSON_AND_ORGANIZATION ( #154, #132 ) ;
#60 = DIRECTION ( 'NONE',  ( 0.0000000000000000000, 1.000000000000000000, 0.0000000000000000000 ) ) ;
#61 = DIRECTION ( 'NONE',  ( -3.491481338843133355E-15, 1.224646799147353207E-16, -1.000000000000000000 ) ) ;
#62 = CC_DESIGN_DATE_AND_TIME_ASSIGNMENT ( #194, #196, ( #53 ) ) ;
#63 = PERSON_AND_ORGANIZATION_ROLE ( 'classification_officer' ) ;
#64 = CONICAL_SURFACE ( 'NONE', #220, 0.8349999999999935252, 1.029744258676649871 ) ;
#65 = PLANE ( 'NONE',  #108 ) ;
#66 = EDGE_CURVE ( 'NONE', #179, #179, #14, .T. ) ;
#67 = DIRECTION ( 'NONE',  ( 4.275831445896957731E-31, 1.000000000000000000, 1.224646799147353454E-16 ) ) ;
#68 = DIRECTION ( 'NONE',  ( 0.0000000000000000000, 1.000000000000000000, 0.0000000000000000000 ) ) ;
#69 = DIRECTION ( 'NONE',  ( 0.0000000000000000000, 0.0000000000000000000, 1.000000000000000000 ) ) ;
#70 = COORDINATED_UNIVERSAL_TIME_OFFSET ( 1, 0, .AHEAD. ) ;
#71 = CC_DESIGN_PERSON_AND_ORGANIZATION_ASSIGNMENT ( #199, #63, ( #53 ) ) ;
#72 = AXIS2_PLACEMENT_3D ( 'NONE', #215, #81, #67 ) ;
#73 = ORIENTED_EDGE ( 'NONE', *, *, #143, .F. ) ;
#74 = ORIENTED_EDGE ( 'NONE', *, *, #66, .T. ) ;
#75 = APPROVAL_PERSON_ORGANIZATION ( #6, #106, #37 ) ;
#76 = APPROVAL_STATUS ( 'not_yet_approved' ) ;
#77 = DIRECTION ( 'NONE',  ( 0.0000000000000000000, 1.000000000000000000, 0.0000000000000000000 ) ) ;
#78 = VERTEX_POINT ( 'NONE', #18 ) ;
#79 = ADVANCED_FACE ( 'NONE', ( #202 ), #153, .F. ) ;
#80 = AXIS2_PLACEMENT_3D ( 'NONE', #25, #130, #217 ) ;
#81 = DIRECTION ( 'NONE',  ( -3.491481338843133355E-15, 1.224646799147353207E-16, -1.000000000000000000 ) ) ;
#82 = DIRECTION ( 'NONE',  ( -4.275831445896958607E-31, -1.000000000000000000, -1.224646799147353207E-16 ) ) ;
#83 = EDGE_CURVE ( 'NONE', #23, #23, #105, .T. ) ;
#84 = APPLICATION_PROTOCOL_DEFINITION ( 'international standard', 'config_control_design', 1994, #86 ) ;
#85 = PERSON_AND_ORGANIZATION ( #154, #132 ) ;
#86 = APPLICATION_CONTEXT ( 'configuration controlled 3d designs of mechanical parts and assemblies' ) ;
#87 =( NAMED_UNIT ( * ) SI_UNIT ( $, .STERADIAN. ) SOLID_ANGLE_UNIT ( ) );
#88 = EDGE_LOOP ( 'NONE', ( #34 ) ) ;
#89 = ORIENTED_EDGE ( 'NONE', *, *, #102, .F. ) ;
#90 = APPROVAL ( #113, 'UNSPECIFIED' ) ;
#91 = CC_DESIGN_APPROVAL ( #106, ( #166 ) ) ;
#92 = ORIENTED_EDGE ( 'NONE', *, *, #143, .T. ) ;
#93 = CC_DESIGN_PERSON_AND_ORGANIZATION_ASSIGNMENT ( #211, #128, ( #166 ) ) ;
#94 = COORDINATED_UNIVERSAL_TIME_OFFSET ( 1, 0, .AHEAD. ) ;
#95 = CARTESIAN_POINT ( 'NONE',  ( 1.751741188214689369E-15, 0.8349999999999934142, 0.5017186168880143349 ) ) ;
#96 = VERTEX_POINT ( 'NONE', #9 ) ;
#97 = CIRCLE ( 'NONE', #214, 0.9999999999999970024 ) ;
#98 = PERSON_AND_ORGANIZATION_ROLE ( 'creator' ) ;
#99 = PRODUCT_RELATED_PRODUCT_CATEGORY ( 'detail', '', ( #17 ) ) ;
#100 = DIRECTION ( 'NONE',  ( -3.491481338843133355E-15, 1.224646799147353207E-16, -1.000000000000000000 ) ) ;
#101 = FACE_BOUND ( 'NONE', #1, .T. ) ;
#102 = EDGE_CURVE ( 'NONE', #96, #96, #125, .T. ) ;
#103 = FACE_OUTER_BOUND ( 'NONE', #156, .T. ) ;
#104 = CARTESIAN_POINT ( 'NONE',  ( 0.0000000000000000000, 0.0000000000000000000, 0.0000000000000000000 ) ) ;
#105 = CIRCLE ( 'NONE', #8, 0.8349999999999935252 ) ;
#106 = APPROVAL ( #76, 'UNSPECIFIED' ) ;
#107 = PERSON_AND_ORGANIZATION ( #154, #132 ) ;
#108 = AXIS2_PLACEMENT_3D ( 'NONE', #48, #31, #28 ) ;
#109 = EDGE_CURVE ( 'NONE', #78, #78, #135, .T. ) ;
#110 = ORIENTED_EDGE ( 'NONE', *, *, #83, .F. ) ;
#111 = CALENDAR_DATE ( 2021, 7, 10 ) ;
#112 = CARTESIAN_POINT ( 'NONE',  ( 0.0000000000000000000, 0.0000000000000000000, 0.0000000000000000000 ) ) ;
#113 = APPROVAL_STATUS ( 'not_yet_approved' ) ;
#114 = CC_DESIGN_PERSON_AND_ORGANIZATION_ASSIGNMENT ( #107, #141, ( #181 ) ) ;
#115 = CARTESIAN_POINT ( 'NONE',  ( 1.319779946082704535E-13, 0.9999999999999963363, 37.79999999999999716 ) ) ;
#116 = DATE_AND_TIME ( #158, #157 ) ;
#117 = DIRECTION ( 'NONE',  ( 3.491481338843133355E-15, -1.224646799147353207E-16, 1.000000000000000000 ) ) ;
#118 = ADVANCED_FACE ( 'NONE', ( #162 ), #64, .T. ) ;
#119 = DIRECTION ( 'NONE',  ( 0.0000000000000000000, 1.000000000000000000, 0.0000000000000000000 ) ) ;
#120 = CC_DESIGN_APPROVAL ( #188, ( #181 ) ) ;
#121 = FACE_OUTER_BOUND ( 'NONE', #88, .T. ) ;
#122 = UNCERTAINTY_MEASURE_WITH_UNIT (LENGTH_MEASURE( 1.000000000000000082E-05 ), #139, 'distance_accuracy_value', 'NONE');
#123 = CARTESIAN_POINT ( 'NONE',  ( 4.189777606611760026E-14, -1.469576158976823947E-15, 12.00000000000000000 ) ) ;
#124 = CARTESIAN_POINT ( 'NONE',  ( 4.289560087308919562E-14, 0.9999999999999954481, 12.28578838324887457 ) ) ;
#125 = CIRCLE ( 'NONE', #149, 0.8000000000000010436 ) ;
#126 = SHAPE_DEFINITION_REPRESENTATION ( #138, #27 ) ;
#127 = FACE_OUTER_BOUND ( 'NONE', #21, .T. ) ;
#128 = PERSON_AND_ORGANIZATION_ROLE ( 'design_supplier' ) ;
#129 = DIRECTION ( 'NONE',  ( -3.491481338843133355E-15, 1.224646799147353207E-16, -1.000000000000000000 ) ) ;
#130 = DIRECTION ( 'NONE',  ( 3.491481338843133355E-15, -1.224646799147353207E-16, 1.000000000000000000 ) ) ;
#131 = COORDINATED_UNIVERSAL_TIME_OFFSET ( 1, 0, .AHEAD. ) ;
#132 = ORGANIZATION ( 'UNSPECIFIED', 'UNSPECIFIED', '' ) ;
#133 = DIRECTION ( 'NONE',  ( -3.491481338843133355E-15, 1.224646799147353207E-16, -1.000000000000000000 ) ) ;
#134 = FACE_OUTER_BOUND ( 'NONE', #171, .T. ) ;
#135 = CIRCLE ( 'NONE', #209, 0.8349999999999960787 ) ;
#136 = CARTESIAN_POINT ( 'NONE',  ( 1.751741188214688974E-15, -6.144280982445439365E-17, 0.5017186168880142239 ) ) ;
#137 = DESIGN_CONTEXT ( 'detailed design', #35, 'design' ) ;
#138 = PRODUCT_DEFINITION_SHAPE ( 'NONE', 'NONE',  #181 ) ;
#139 =( LENGTH_UNIT ( ) NAMED_UNIT ( * ) SI_UNIT ( .MILLI., .METRE. ) );
#140 = CALENDAR_DATE ( 2021, 7, 10 ) ;
#141 = PERSON_AND_ORGANIZATION_ROLE ( 'creator' ) ;
#142 = LOCAL_TIME ( 15, 48, 2.000000000000000000, #131 ) ;
#143 = EDGE_CURVE ( 'NONE', #186, #186, #97, .T. ) ;
#144 = LOCAL_TIME ( 15, 48, 2.000000000000000000, #207 ) ;
#145 = EDGE_LOOP ( 'NONE', ( #74 ) ) ;
#146 = DATE_AND_TIME ( #54, #144 ) ;
#147 = DIRECTION ( 'NONE',  ( 0.0000000000000000000, -1.000000000000000000, 0.0000000000000000000 ) ) ;
#148 = DIRECTION ( 'NONE',  ( -4.613005854819762382E-31, -1.000000000000000000, -1.298445715551512390E-16 ) ) ;
#149 = AXIS2_PLACEMENT_3D ( 'NONE', #182, #161, #68 ) ;
#150 = DIRECTION ( 'NONE',  ( -3.491481338843133355E-15, 1.224646799147353207E-16, -1.000000000000000000 ) ) ;
#151 = CONICAL_SURFACE ( 'NONE', #29, 0.8000000000000010436, 0.7853981633974510546 ) ;
#152 = ADVANCED_FACE ( 'NONE', ( #101, #134 ), #170, .T. ) ;
#153 = PLANE ( 'NONE',  #80 ) ;
#154 = PERSON ( 'UNSPECIFIED', 'UNSPECIFIED', 'UNSPECIFIED', ('UNSPECIFIED'), ('UNSPECIFIED'), ('UNSPECIFIED') ) ;
#155 = ORIENTED_EDGE ( 'NONE', *, *, #109, .F. ) ;
#156 = EDGE_LOOP ( 'NONE', ( #89 ) ) ;
#157 = LOCAL_TIME ( 15, 48, 2.000000000000000000, #3 ) ;
#158 = CALENDAR_DATE ( 2021, 7, 10 ) ;
#159 = DIRECTION ( 'NONE',  ( 4.275831445896958607E-31, 1.000000000000000000, 1.224646799147353207E-16 ) ) ;
#160 = CALENDAR_DATE ( 2021, 7, 10 ) ;
#161 = DIRECTION ( 'NONE',  ( -3.491481338843133355E-15, 1.224646799147353207E-16, -1.000000000000000000 ) ) ;
#162 = FACE_OUTER_BOUND ( 'NONE', #22, .T. ) ;
#163 = CC_DESIGN_APPROVAL ( #90, ( #53 ) ) ;
#164 = DIRECTION ( 'NONE',  ( 3.491481338843133355E-15, -1.224646799147353207E-16, 1.000000000000000000 ) ) ;
#165 = CARTESIAN_POINT ( 'NONE',  ( 4.189777606611760026E-14, 6.261497092613202690E-33, 12.00000000000000000 ) ) ;
#166 = PRODUCT_DEFINITION_FORMATION_WITH_SPECIFIED_SOURCE ( 'ANY', '', #17, .NOT_KNOWN. ) ;
#167 = APPLICATION_PROTOCOL_DEFINITION ( 'international standard', 'config_control_design', 1994, #35 ) ;
#168 = PERSON_AND_ORGANIZATION ( #154, #132 ) ;
#169 = CC_DESIGN_DATE_AND_TIME_ASSIGNMENT ( #146, #178, ( #181 ) ) ;
#170 = CONICAL_SURFACE ( 'NONE', #47, 0.9999999999999970024, 0.5235987755982871583 ) ;
#171 = EDGE_LOOP ( 'NONE', ( #92 ) ) ;
#172 = APPROVAL_ROLE ( '' ) ;
#173 = DIRECTION ( 'NONE',  ( -3.491481338843133355E-15, 1.224646799147353207E-16, -1.000000000000000000 ) ) ;
#174 = AXIS2_PLACEMENT_3D ( 'NONE', #213, #150, #119 ) ;
#175 = EDGE_LOOP ( 'NONE', ( #210 ) ) ;
#176 = PERSON_AND_ORGANIZATION ( #154, #132 ) ;
#177 = FACE_OUTER_BOUND ( 'NONE', #58, .T. ) ;
#178 = DATE_TIME_ROLE ( 'creation_date' ) ;
#179 = VERTEX_POINT ( 'NONE', #115 ) ;
#180 =( GEOMETRIC_REPRESENTATION_CONTEXT ( 3 ) GLOBAL_UNCERTAINTY_ASSIGNED_CONTEXT ( ( #122 ) ) GLOBAL_UNIT_ASSIGNED_CONTEXT ( ( #139, #189, #87 ) ) REPRESENTATION_CONTEXT ( 'NONE', 'WORKASPACE' ) );
#181 = PRODUCT_DEFINITION ( 'UNKNOWN', '', #166, #137 ) ;
#182 = CARTESIAN_POINT ( 'NONE',  ( 1.326762908760390423E-13, -4.653657836759941941E-15, 38.00000000000000000 ) ) ;
#183 = AXIS2_PLACEMENT_3D ( 'NONE', #104, #69, #51 ) ;
#184 = PLANE ( 'NONE',  #26 ) ;
#185 = CARTESIAN_POINT ( 'NONE',  ( 1.326762908760390423E-13, -4.653657836759941941E-15, 38.00000000000000000 ) ) ;
#186 = VERTEX_POINT ( 'NONE', #124 ) ;
#187 = APPROVAL_DATE_TIME ( #222, #188 ) ;
#188 = APPROVAL ( #221, 'UNSPECIFIED' ) ;
#189 =( NAMED_UNIT ( * ) PLANE_ANGLE_UNIT ( ) SI_UNIT ( $, .RADIAN. ) );
#190 = EDGE_LOOP ( 'NONE', ( #73 ) ) ;
#191 = AXIS2_PLACEMENT_3D ( 'NONE', #112, #173, #159 ) ;
#192 = ORIENTED_EDGE ( 'NONE', *, *, #83, .T. ) ;
#193 = FACE_OUTER_BOUND ( 'NONE', #2, .T. ) ;
#194 = DATE_AND_TIME ( #111, #10 ) ;
#195 = LOCAL_TIME ( 15, 48, 2.000000000000000000, #70 ) ;
#196 = DATE_TIME_ROLE ( 'classification_date' ) ;
#197 = VERTEX_POINT ( 'NONE', #43 ) ;
#198 = DIRECTION ( 'NONE',  ( 4.613005854819762382E-31, 1.000000000000000000, 1.298445715551512390E-16 ) ) ;
#199 = PERSON_AND_ORGANIZATION ( #154, #132 ) ;
#200 = CIRCLE ( 'NONE', #57, 0.8349999999999960787 ) ;
#201 = CC_DESIGN_SECURITY_CLASSIFICATION ( #53, ( #166 ) ) ;
#202 = FACE_OUTER_BOUND ( 'NONE', #20, .T. ) ;
#203 = CARTESIAN_POINT ( 'NONE',  ( 4.289560087308919562E-14, -1.504575141854746857E-15, 12.28578838324887457 ) ) ;
#204 = FACE_BOUND ( 'NONE', #175, .T. ) ;
#205 = PERSON_AND_ORGANIZATION_ROLE ( 'design_owner' ) ;
#206 = MANIFOLD_SOLID_BREP ( 'Corps-Déplacer/Copier1[1]', #33 ) ;
#207 = COORDINATED_UNIVERSAL_TIME_OFFSET ( 1, 0, .AHEAD. ) ;
#208 = ORIENTED_EDGE ( 'NONE', *, *, #56, .T. ) ;
#209 = AXIS2_PLACEMENT_3D ( 'NONE', #123, #100, #77 ) ;
#210 = ORIENTED_EDGE ( 'NONE', *, *, #102, .T. ) ;
#211 = PERSON_AND_ORGANIZATION ( #154, #132 ) ;
#212 = ADVANCED_FACE ( 'NONE', ( #121 ), #184, .T. ) ;
#213 = CARTESIAN_POINT ( 'NONE',  ( 1.319779946082704535E-13, -4.629164900776995227E-15, 37.79999999999999716 ) ) ;
#214 = AXIS2_PLACEMENT_3D ( 'NONE', #218, #44, #11 ) ;
#215 = CARTESIAN_POINT ( 'NONE',  ( 0.0000000000000000000, 0.0000000000000000000, 0.0000000000000000000 ) ) ;
#216 = ADVANCED_FACE ( 'NONE', ( #177, #204 ), #151, .T. ) ;
#217 = DIRECTION ( 'NONE',  ( -4.275831445896958607E-31, -1.000000000000000000, -1.224646799147353207E-16 ) ) ;
#218 = CARTESIAN_POINT ( 'NONE',  ( 4.289560087308919562E-14, -1.504575141854746857E-15, 12.28578838324887457 ) ) ;
#219 = CARTESIAN_POINT ( 'NONE',  ( 4.189777606611760026E-14, -1.469576158976823947E-15, 12.00000000000000000 ) ) ;
#220 = AXIS2_PLACEMENT_3D ( 'NONE', #136, #164, #148 ) ;
#221 = APPROVAL_STATUS ( 'not_yet_approved' ) ;
#222 = DATE_AND_TIME ( #140, #195 ) ;
#223 = CC_DESIGN_PERSON_AND_ORGANIZATION_ASSIGNMENT ( #168, #205, ( #17 ) ) ;
ENDSEC;
END-ISO-10303-21;
