ISO-10303-21;
HEADER;
FILE_DESCRIPTION (( 'STEP AP203' ),
    '1' );
FILE_NAME ('43956.step',
    '2021-11-01T09:16:22',
    ( '' ),
    ( '' ),
    'SwSTEP 2.0',
    'SolidWorks 2019',
    '' );
FILE_SCHEMA (( 'CONFIG_CONTROL_DESIGN' ));
ENDSEC;

DATA;
#1 = FACE_OUTER_BOUND ( 'NONE', #60, .T. ) ;
#2 = DIRECTION ( 'NONE',  ( -4.285855558155654155E-31, -1.000000000000000000, -1.227517819005651059E-16 ) ) ;
#3 = CARTESIAN_POINT ( 'NONE',  ( 0.0000000000000000000, 0.0000000000000000000, 0.0000000000000000000 ) ) ;
#4 = CARTESIAN_POINT ( 'NONE',  ( 1.326762908760390423E-13, -4.653657836759941941E-15, 38.00000000000000000 ) ) ;
#5 =( LENGTH_UNIT ( ) NAMED_UNIT ( * ) SI_UNIT ( .MILLI., .METRE. ) );
#6 = ADVANCED_FACE ( 'NONE', ( #112, #13 ), #57, .T. ) ;
#7 = DATE_AND_TIME ( #24, #130 ) ;
#8 = APPROVAL_DATE_TIME ( #26, #100 ) ;
#9 = LOCAL_TIME ( 10, 16, 22.00000000000000000, #87 ) ;
#10 = CIRCLE ( 'NONE', #182, 1.199999999999993738 ) ;
#11 = CIRCLE ( 'NONE', #86, 1.499999999999991784 ) ;
#12 = EDGE_LOOP ( 'NONE', ( #93 ) ) ;
#13 = FACE_OUTER_BOUND ( 'NONE', #180, .T. ) ;
#14 = DIRECTION ( 'NONE',  ( 3.491481338843133355E-15, -1.227517819005651059E-16, 1.000000000000000000 ) ) ;
#15 = ORIENTED_EDGE ( 'NONE', *, *, #76, .F. ) ;
#16 = PERSON ( 'UNSPECIFIED', 'UNSPECIFIED', 'UNSPECIFIED', ('UNSPECIFIED'), ('UNSPECIFIED'), ('UNSPECIFIED') ) ;
#17 = DIRECTION ( 'NONE',  ( 3.491481338843133355E-15, -1.224646799147353207E-16, 1.000000000000000000 ) ) ;
#18 = DIRECTION ( 'NONE',  ( 3.491481338843133355E-15, -1.227517819005651059E-16, 1.000000000000000000 ) ) ;
#19 = CARTESIAN_POINT ( 'NONE',  ( 2.444036937190193349E-14, 1.124819836996384448E-32, 7.000000000000000000 ) ) ;
#20 = AXIS2_PLACEMENT_3D ( 'NONE', #188, #79, #2 ) ;
#21 = FACE_OUTER_BOUND ( 'NONE', #92, .T. ) ;
#22 =( GEOMETRIC_REPRESENTATION_CONTEXT ( 3 ) GLOBAL_UNCERTAINTY_ASSIGNED_CONTEXT ( ( #138 ) ) GLOBAL_UNIT_ASSIGNED_CONTEXT ( ( #5, #85, #110 ) ) REPRESENTATION_CONTEXT ( 'NONE', 'WORKASPACE' ) );
#23 = PERSON_AND_ORGANIZATION ( #16, #218 ) ;
#24 = CALENDAR_DATE ( 2021, 1, 11 ) ;
#25 = DATE_AND_TIME ( #158, #9 ) ;
#26 = DATE_AND_TIME ( #191, #35 ) ;
#27 = PERSON_AND_ORGANIZATION_ROLE ( 'classification_officer' ) ;
#28 = EDGE_LOOP ( 'NONE', ( #15 ) ) ;
#29 = PRODUCT_DEFINITION_FORMATION_WITH_SPECIFIED_SOURCE ( 'ANY', '', #201, .NOT_KNOWN. ) ;
#30 = FACE_OUTER_BOUND ( 'NONE', #12, .T. ) ;
#31 = CARTESIAN_POINT ( 'NONE',  ( 2.444036937190193349E-14, -8.592624733039556917E-16, 7.000000000000000000 ) ) ;
#32 = FACE_OUTER_BOUND ( 'NONE', #128, .T. ) ;
#33 = CARTESIAN_POINT ( 'NONE',  ( 1.316288464743861212E-13, -4.616918432785521081E-15, 37.69999999999999574 ) ) ;
#34 = CARTESIAN_POINT ( 'NONE',  ( 1.326762908760390423E-13, -4.653657836759941941E-15, 38.00000000000000000 ) ) ;
#35 = LOCAL_TIME ( 10, 16, 22.00000000000000000, #177 ) ;
#36 = COORDINATED_UNIVERSAL_TIME_OFFSET ( 1, 0, .AHEAD. ) ;
#37 = VERTEX_POINT ( 'NONE', #121 ) ;
#38 = APPLICATION_PROTOCOL_DEFINITION ( 'international standard', 'config_control_design', 1994, #127 ) ;
#39 = PERSON_AND_ORGANIZATION ( #16, #218 ) ;
#40 = CARTESIAN_POINT ( 'NONE',  ( -6.413731847436034514E-31, 0.0000000000000000000, -1.836965810494968570E-16 ) ) ;
#41 = EDGE_LOOP ( 'NONE', ( #75 ) ) ;
#42 = LOCAL_TIME ( 10, 16, 22.00000000000000000, #179 ) ;
#43 = AXIS2_PLACEMENT_3D ( 'NONE', #168, #189, #131 ) ;
#44 = PLANE ( 'NONE',  #106 ) ;
#45 = VERTEX_POINT ( 'NONE', #117 ) ;
#46 = PLANE ( 'NONE',  #167 ) ;
#47 = CARTESIAN_POINT ( 'NONE',  ( -9.428882227942441419E-31, -1.100000000000000311, -2.700539201812433118E-16 ) ) ;
#48 = FACE_OUTER_BOUND ( 'NONE', #200, .T. ) ;
#49 = EDGE_CURVE ( 'NONE', #136, #136, #11, .T. ) ;
#50 = ADVANCED_BREP_SHAPE_REPRESENTATION ( '43956', ( #54, #58, #102 ), #22 ) ;
#51 = AXIS2_PLACEMENT_3D ( 'NONE', #135, #210, #64 ) ;
#52 = CC_DESIGN_PERSON_AND_ORGANIZATION_ASSIGNMENT ( #141, #143, ( #29 ) ) ;
#53 = SECURITY_CLASSIFICATION ( '', '', #196 ) ;
#54 = MANIFOLD_SOLID_BREP ( 'Corps-Déplacer/Copier1[1]', #145 ) ;
#55 = ORIENTED_EDGE ( 'NONE', *, *, #142, .T. ) ;
#56 = EDGE_LOOP ( 'NONE', ( #205 ) ) ;
#57 = CYLINDRICAL_SURFACE ( 'NONE', #148, 1.099999999999999867 ) ;
#58 = MANIFOLD_SOLID_BREP ( 'Corps-Déplacer/Copier1[2]', #119 ) ;
#59 = APPROVAL ( #215, 'UNSPECIFIED' ) ;
#60 = EDGE_LOOP ( 'NONE', ( #147 ) ) ;
#61 = ORIENTED_EDGE ( 'NONE', *, *, #49, .T. ) ;
#62 = APPROVAL_PERSON_ORGANIZATION ( #109, #100, #103 ) ;
#63 = FACE_OUTER_BOUND ( 'NONE', #28, .T. ) ;
#64 = DIRECTION ( 'NONE',  ( 4.275831445896958607E-31, 1.000000000000000000, 1.224646799147353207E-16 ) ) ;
#65 = APPROVAL ( #181, 'UNSPECIFIED' ) ;
#66 = DIRECTION ( 'NONE',  ( 0.0000000000000000000, 1.000000000000000000, 0.0000000000000000000 ) ) ;
#67 = DIRECTION ( 'NONE',  ( 4.275831445896958607E-31, 1.000000000000000000, 1.224646799147353207E-16 ) ) ;
#68 = CARTESIAN_POINT ( 'NONE',  ( 3.316208696091015359E-14, 1.499999999999991562, 9.497999199359338007 ) ) ;
#69 = CONICAL_SURFACE ( 'NONE', #74, 1.199999999999993738, 0.7853981633974453924 ) ;
#70 = PERSON_AND_ORGANIZATION_ROLE ( 'creator' ) ;
#71 = PERSON_AND_ORGANIZATION ( #16, #218 ) ;
#72 = DATE_TIME_ROLE ( 'classification_date' ) ;
#73 = EDGE_CURVE ( 'NONE', #45, #45, #216, .T. ) ;
#74 = AXIS2_PLACEMENT_3D ( 'NONE', #4, #169, #77 ) ;
#75 = ORIENTED_EDGE ( 'NONE', *, *, #208, .T. ) ;
#76 = EDGE_CURVE ( 'NONE', #211, #211, #207, .T. ) ;
#77 = DIRECTION ( 'NONE',  ( 0.0000000000000000000, 1.000000000000000000, 0.0000000000000000000 ) ) ;
#78 = DIRECTION ( 'NONE',  ( 0.0000000000000000000, -1.000000000000000000, 0.0000000000000000000 ) ) ;
#79 = DIRECTION ( 'NONE',  ( 3.491481338843133355E-15, -1.227517819005651059E-16, 1.000000000000000000 ) ) ;
#80 = APPLICATION_CONTEXT ( 'configuration controlled 3d designs of mechanical parts and assemblies' ) ;
#81 = FACE_BOUND ( 'NONE', #129, .T. ) ;
#82 = CC_DESIGN_PERSON_AND_ORGANIZATION_ASSIGNMENT ( #214, #105, ( #201 ) ) ;
#83 = CARTESIAN_POINT ( 'NONE',  ( 1.326762908760390423E-13, 1.199999999999989297, 38.00000000000000000 ) ) ;
#84 = DESIGN_CONTEXT ( 'detailed design', #80, 'design' ) ;
#85 =( NAMED_UNIT ( * ) PLANE_ANGLE_UNIT ( ) SI_UNIT ( $, .RADIAN. ) );
#86 = AXIS2_PLACEMENT_3D ( 'NONE', #151, #98, #66 ) ;
#87 = COORDINATED_UNIVERSAL_TIME_OFFSET ( 1, 0, .AHEAD. ) ;
#88 = APPROVAL_DATE_TIME ( #25, #59 ) ;
#89 = PERSON_AND_ORGANIZATION_ROLE ( 'creator' ) ;
#90 = DATE_AND_TIME ( #175, #155 ) ;
#91 = CIRCLE ( 'NONE', #195, 1.099999999999999423 ) ;
#92 = EDGE_LOOP ( 'NONE', ( #113 ) ) ;
#93 = ORIENTED_EDGE ( 'NONE', *, *, #49, .F. ) ;
#94 = AXIS2_PLACEMENT_3D ( 'NONE', #3, #173, #67 ) ;
#95 = APPROVAL_ROLE ( '' ) ;
#96 = DIRECTION ( 'NONE',  ( -4.275831445896958607E-31, -1.000000000000000000, -1.224646799147353207E-16 ) ) ;
#97 = PLANE ( 'NONE',  #132 ) ;
#98 = DIRECTION ( 'NONE',  ( -3.491481338843133355E-15, 1.227517819005651059E-16, -1.000000000000000000 ) ) ;
#99 = DIRECTION ( 'NONE',  ( 0.0000000000000000000, 1.000000000000000000, 0.0000000000000000000 ) ) ;
#100 = APPROVAL ( #176, 'UNSPECIFIED' ) ;
#101 = DIRECTION ( 'NONE',  ( 3.491481338843133355E-15, -1.227517819005651059E-16, 1.000000000000000000 ) ) ;
#102 = AXIS2_PLACEMENT_3D ( 'NONE', #125, #193, #194 ) ;
#103 = APPROVAL_ROLE ( '' ) ;
#104 = AXIS2_PLACEMENT_3D ( 'NONE', #213, #101, #116 ) ;
#105 = PERSON_AND_ORGANIZATION_ROLE ( 'design_owner' ) ;
#106 = AXIS2_PLACEMENT_3D ( 'NONE', #19, #153, #172 ) ;
#107 = APPLICATION_PROTOCOL_DEFINITION ( 'international standard', 'config_control_design', 1994, #80 ) ;
#108 = ADVANCED_FACE ( 'NONE', ( #170 ), #46, .F. ) ;
#109 = PERSON_AND_ORGANIZATION ( #16, #218 ) ;
#110 =( NAMED_UNIT ( * ) SI_UNIT ( $, .STERADIAN. ) SOLID_ANGLE_UNIT ( ) );
#111 = ADVANCED_FACE ( 'NONE', ( #21, #81 ), #69, .T. ) ;
#112 = FACE_OUTER_BOUND ( 'NONE', #56, .T. ) ;
#113 = ORIENTED_EDGE ( 'NONE', *, *, #157, .F. ) ;
#114 = CIRCLE ( 'NONE', #204, 1.499999999999993783 ) ;
#115 = ADVANCED_FACE ( 'NONE', ( #150, #32 ), #221, .F. ) ;
#116 = DIRECTION ( 'NONE',  ( -4.347973205882576304E-31, -1.000000000000000000, -1.227517819005651059E-16 ) ) ;
#117 = CARTESIAN_POINT ( 'NONE',  ( 2.444036937190193349E-14, -1.100000000000000311, 7.000000000000000000 ) ) ;
#118 = CARTESIAN_POINT ( 'NONE',  ( 2.444036937190193349E-14, 1.124819836996384448E-32, 7.000000000000000000 ) ) ;
#119 = CLOSED_SHELL ( 'NONE', ( #171, #6, #126 ) ) ;
#120 = VERTEX_POINT ( 'NONE', #83 ) ;
#121 = CARTESIAN_POINT ( 'NONE',  ( 2.444036937190193349E-14, -1.100000000000000311, 7.000000000000000000 ) ) ;
#122 = CARTESIAN_POINT ( 'NONE',  ( 1.316288464743861212E-13, 1.499999999999989120, 37.69999999999999574 ) ) ;
#123 = PRODUCT_DEFINITION_SHAPE ( 'NONE', 'NONE',  #164 ) ;
#124 = CC_DESIGN_APPROVAL ( #100, ( #164 ) ) ;
#125 = CARTESIAN_POINT ( 'NONE',  ( 0.0000000000000000000, 0.0000000000000000000, 0.0000000000000000000 ) ) ;
#126 = ADVANCED_FACE ( 'NONE', ( #63 ), #97, .F. ) ;
#127 = APPLICATION_CONTEXT ( 'configuration controlled 3d designs of mechanical parts and assemblies' ) ;
#128 = EDGE_LOOP ( 'NONE', ( #61 ) ) ;
#129 = EDGE_LOOP ( 'NONE', ( #55 ) ) ;
#130 = LOCAL_TIME ( 10, 16, 22.00000000000000000, #160 ) ;
#131 = DIRECTION ( 'NONE',  ( 0.0000000000000000000, -1.000000000000000000, 0.0000000000000000000 ) ) ;
#132 = AXIS2_PLACEMENT_3D ( 'NONE', #133, #206, #187 ) ;
#133 = CARTESIAN_POINT ( 'NONE',  ( -1.282754905350004587E-30, 4.499298539707956128E-32, -3.673956068672651857E-16 ) ) ;
#134 = ADVANCED_FACE ( 'NONE', ( #1 ), #190, .F. ) ;
#135 = CARTESIAN_POINT ( 'NONE',  ( 1.326762908760390423E-13, 8.998558695971030697E-33, 38.00000000000000000 ) ) ;
#136 = VERTEX_POINT ( 'NONE', #68 ) ;
#137 = DIRECTION ( 'NONE',  ( -3.491481338843133355E-15, 1.224646799147353207E-16, -1.000000000000000000 ) ) ;
#138 = UNCERTAINTY_MEASURE_WITH_UNIT (LENGTH_MEASURE( 1.000000000000000082E-05 ), #5, 'distance_accuracy_value', 'NONE');
#139 = MECHANICAL_CONTEXT ( 'NONE', #127, 'mechanical' ) ;
#140 = APPROVAL_ROLE ( '' ) ;
#141 = PERSON_AND_ORGANIZATION ( #16, #218 ) ;
#142 = EDGE_CURVE ( 'NONE', #120, #120, #10, .T. ) ;
#143 = PERSON_AND_ORGANIZATION_ROLE ( 'design_supplier' ) ;
#144 = APPROVAL_PERSON_ORGANIZATION ( #71, #59, #140 ) ;
#145 = CLOSED_SHELL ( 'NONE', ( #198, #111, #134, #115, #108 ) ) ;
#146 = CALENDAR_DATE ( 2021, 1, 11 ) ;
#147 = ORIENTED_EDGE ( 'NONE', *, *, #142, .F. ) ;
#148 = AXIS2_PLACEMENT_3D ( 'NONE', #40, #14, #185 ) ;
#149 = CC_DESIGN_DATE_AND_TIME_ASSIGNMENT ( #90, #72, ( #53 ) ) ;
#150 = FACE_OUTER_BOUND ( 'NONE', #41, .T. ) ;
#151 = CARTESIAN_POINT ( 'NONE',  ( 3.316208696091015359E-14, -3.066338529075436988E-16, 9.497999199359338007 ) ) ;
#152 = CC_DESIGN_PERSON_AND_ORGANIZATION_ASSIGNMENT ( #159, #70, ( #29 ) ) ;
#153 = DIRECTION ( 'NONE',  ( 3.491481338843133355E-15, -1.224646799147353207E-16, 1.000000000000000000 ) ) ;
#154 = CYLINDRICAL_SURFACE ( 'NONE', #94, 1.499999999999991784 ) ;
#155 = LOCAL_TIME ( 10, 16, 22.00000000000000000, #36 ) ;
#156 = VERTEX_POINT ( 'NONE', #122 ) ;
#157 = EDGE_CURVE ( 'NONE', #156, #156, #114, .T. ) ;
#158 = CALENDAR_DATE ( 2021, 1, 11 ) ;
#159 = PERSON_AND_ORGANIZATION ( #16, #218 ) ;
#160 = COORDINATED_UNIVERSAL_TIME_OFFSET ( 1, 0, .AHEAD. ) ;
#161 = PERSON_AND_ORGANIZATION ( #16, #218 ) ;
#162 = APPROVAL_PERSON_ORGANIZATION ( #23, #65, #95 ) ;
#163 = DATE_AND_TIME ( #146, #42 ) ;
#164 = PRODUCT_DEFINITION ( 'UNKNOWN', '', #29, #84 ) ;
#165 = EDGE_LOOP ( 'NONE', ( #199 ) ) ;
#166 = ORIENTED_EDGE ( 'NONE', *, *, #73, .F. ) ;
#167 = AXIS2_PLACEMENT_3D ( 'NONE', #118, #17, #96 ) ;
#168 = CARTESIAN_POINT ( 'NONE',  ( 2.444036937190193349E-14, -8.592624733039556917E-16, 7.000000000000000000 ) ) ;
#169 = DIRECTION ( 'NONE',  ( -3.491481338843133355E-15, 1.224646799147353207E-16, -1.000000000000000000 ) ) ;
#170 = FACE_OUTER_BOUND ( 'NONE', #183, .T. ) ;
#171 = ADVANCED_FACE ( 'NONE', ( #48 ), #44, .T. ) ;
#172 = DIRECTION ( 'NONE',  ( -4.275831445896958607E-31, -1.000000000000000000, -1.224646799147353207E-16 ) ) ;
#173 = DIRECTION ( 'NONE',  ( -3.491481338843133355E-15, 1.224646799147353207E-16, -1.000000000000000000 ) ) ;
#174 = CC_DESIGN_APPROVAL ( #59, ( #29 ) ) ;
#175 = CALENDAR_DATE ( 2021, 1, 11 ) ;
#176 = APPROVAL_STATUS ( 'not_yet_approved' ) ;
#177 = COORDINATED_UNIVERSAL_TIME_OFFSET ( 1, 0, .AHEAD. ) ;
#178 = CC_DESIGN_PERSON_AND_ORGANIZATION_ASSIGNMENT ( #39, #27, ( #53 ) ) ;
#179 = COORDINATED_UNIVERSAL_TIME_OFFSET ( 1, 0, .AHEAD. ) ;
#180 = EDGE_LOOP ( 'NONE', ( #166 ) ) ;
#181 = APPROVAL_STATUS ( 'not_yet_approved' ) ;
#182 = AXIS2_PLACEMENT_3D ( 'NONE', #34, #137, #223 ) ;
#183 = EDGE_LOOP ( 'NONE', ( #203 ) ) ;
#184 = CC_DESIGN_SECURITY_CLASSIFICATION ( #53, ( #29 ) ) ;
#185 = DIRECTION ( 'NONE',  ( -4.285855558155653280E-31, -1.000000000000000000, -1.227517819005651059E-16 ) ) ;
#186 = FACE_OUTER_BOUND ( 'NONE', #165, .T. ) ;
#187 = DIRECTION ( 'NONE',  ( -4.275831445896958607E-31, -1.000000000000000000, -1.224646799147353207E-16 ) ) ;
#188 = CARTESIAN_POINT ( 'NONE',  ( -4.714441113971220709E-31, -5.974282697127020338E-33, -1.350269600906216559E-16 ) ) ;
#189 = DIRECTION ( 'NONE',  ( 3.491481338843133355E-15, -1.227517819005651059E-16, 1.000000000000000000 ) ) ;
#190 = PLANE ( 'NONE',  #51 ) ;
#191 = CALENDAR_DATE ( 2021, 1, 11 ) ;
#192 = CC_DESIGN_APPROVAL ( #65, ( #53 ) ) ;
#193 = DIRECTION ( 'NONE',  ( 0.0000000000000000000, 0.0000000000000000000, 1.000000000000000000 ) ) ;
#194 = DIRECTION ( 'NONE',  ( 1.000000000000000000, 0.0000000000000000000, 0.0000000000000000000 ) ) ;
#195 = AXIS2_PLACEMENT_3D ( 'NONE', #31, #18, #78 ) ;
#196 = SECURITY_CLASSIFICATION_LEVEL ( 'unclassified' ) ;
#197 = SHAPE_DEFINITION_REPRESENTATION ( #123, #50 ) ;
#198 = ADVANCED_FACE ( 'NONE', ( #186, #30 ), #154, .T. ) ;
#199 = ORIENTED_EDGE ( 'NONE', *, *, #157, .T. ) ;
#200 = EDGE_LOOP ( 'NONE', ( #202 ) ) ;
#201 = PRODUCT ( '43956', '43956', '', ( #139 ) ) ;
#202 = ORIENTED_EDGE ( 'NONE', *, *, #73, .T. ) ;
#203 = ORIENTED_EDGE ( 'NONE', *, *, #208, .F. ) ;
#204 = AXIS2_PLACEMENT_3D ( 'NONE', #33, #209, #99 ) ;
#205 = ORIENTED_EDGE ( 'NONE', *, *, #76, .T. ) ;
#206 = DIRECTION ( 'NONE',  ( 3.491481338843133355E-15, -1.224646799147353207E-16, 1.000000000000000000 ) ) ;
#207 = CIRCLE ( 'NONE', #20, 1.100000000000000311 ) ;
#208 = EDGE_CURVE ( 'NONE', #37, #37, #91, .T. ) ;
#209 = DIRECTION ( 'NONE',  ( -3.491481338843133355E-15, 1.224646799147353207E-16, -1.000000000000000000 ) ) ;
#210 = DIRECTION ( 'NONE',  ( -3.491481338843133355E-15, 1.224646799147353207E-16, -1.000000000000000000 ) ) ;
#211 = VERTEX_POINT ( 'NONE', #47 ) ;
#212 = CC_DESIGN_PERSON_AND_ORGANIZATION_ASSIGNMENT ( #161, #89, ( #164 ) ) ;
#213 = CARTESIAN_POINT ( 'NONE',  ( 2.444036937190193349E-14, 0.0000000000000000000, 7.000000000000000000 ) ) ;
#214 = PERSON_AND_ORGANIZATION ( #16, #218 ) ;
#215 = APPROVAL_STATUS ( 'not_yet_approved' ) ;
#216 = CIRCLE ( 'NONE', #43, 1.099999999999999423 ) ;
#217 = CC_DESIGN_DATE_AND_TIME_ASSIGNMENT ( #7, #219, ( #164 ) ) ;
#218 = ORGANIZATION ( 'UNSPECIFIED', 'UNSPECIFIED', '' ) ;
#219 = DATE_TIME_ROLE ( 'creation_date' ) ;
#220 = PRODUCT_RELATED_PRODUCT_CATEGORY ( 'detail', '', ( #201 ) ) ;
#221 = TOROIDAL_SURFACE ( 'NONE', #104, 9.099999999999997868, 8.000000000000000000 ) ;
#222 = APPROVAL_DATE_TIME ( #163, #65 ) ;
#223 = DIRECTION ( 'NONE',  ( 0.0000000000000000000, 1.000000000000000000, 0.0000000000000000000 ) ) ;
ENDSEC;
END-ISO-10303-21;
