ISO-10303-21;
HEADER;
FILE_DESCRIPTION (( 'STEP AP203' ),
    '1' );
FILE_NAME ('43920.step',
    '2021-11-01T10:35:19',
    ( '' ),
    ( '' ),
    'SwSTEP 2.0',
    'SolidWorks 2019',
    '' );
FILE_SCHEMA (( 'CONFIG_CONTROL_DESIGN' ));
ENDSEC;

DATA;
#1 = APPLICATION_PROTOCOL_DEFINITION ( 'international standard', 'config_control_design', 1994, #207 ) ;
#2 = PERSON_AND_ORGANIZATION ( #86, #83 ) ;
#3 = DIRECTION ( 'NONE',  ( -4.365441207277734308E-31, -1.000000000000000000, -1.228762462150238276E-16 ) ) ;
#4 = LOCAL_TIME ( 11, 35, 19.00000000000000000, #148 ) ;
#5 = EDGE_CURVE ( 'NONE', #37, #37, #167, .T. ) ;
#6 = AXIS2_PLACEMENT_3D ( 'NONE', #180, #28, #116 ) ;
#7 = PRODUCT ( '43920', '43920', '', ( #113 ) ) ;
#8 = APPROVAL_ROLE ( '' ) ;
#9 =( GEOMETRIC_REPRESENTATION_CONTEXT ( 3 ) GLOBAL_UNCERTAINTY_ASSIGNED_CONTEXT ( ( #76 ) ) GLOBAL_UNIT_ASSIGNED_CONTEXT ( ( #35, #39, #208 ) ) REPRESENTATION_CONTEXT ( 'NONE', 'WORKASPACE' ) );
#10 = ADVANCED_FACE ( 'NONE', ( #61, #166 ), #169, .T. ) ;
#11 = DIRECTION ( 'NONE',  ( 0.0000000000000000000, 1.000000000000000000, 0.0000000000000000000 ) ) ;
#12 = DIRECTION ( 'NONE',  ( 3.491481338843133355E-15, -1.224646799147353207E-16, 1.000000000000000000 ) ) ;
#13 = EDGE_LOOP ( 'NONE', ( #160 ) ) ;
#14 = PERSON_AND_ORGANIZATION_ROLE ( 'design_supplier' ) ;
#15 = AXIS2_PLACEMENT_3D ( 'NONE', #79, #62, #3 ) ;
#16 = DIRECTION ( 'NONE',  ( 3.491481338843133355E-15, -1.226656096638776648E-16, 1.000000000000000000 ) ) ;
#17 = FACE_OUTER_BOUND ( 'NONE', #68, .T. ) ;
#18 = ORIENTED_EDGE ( 'NONE', *, *, #82, .F. ) ;
#19 = CARTESIAN_POINT ( 'NONE',  ( 5.586370142149013368E-14, -3.750000000000000888, 16.00000000000000000 ) ) ;
#20 = DIRECTION ( 'NONE',  ( 0.0000000000000000000, 0.0000000000000000000, 1.000000000000000000 ) ) ;
#21 = DIRECTION ( 'NONE',  ( 1.000000000000000000, 0.0000000000000000000, 0.0000000000000000000 ) ) ;
#22 = VERTEX_POINT ( 'NONE', #163 ) ;
#23 = EDGE_CURVE ( 'NONE', #111, #111, #146, .T. ) ;
#24 = CC_DESIGN_DATE_AND_TIME_ASSIGNMENT ( #53, #231, ( #40 ) ) ;
#25 = APPROVAL_STATUS ( 'not_yet_approved' ) ;
#26 = DIRECTION ( 'NONE',  ( -4.282846870592448247E-31, -1.000000000000000000, -1.226656096638776648E-16 ) ) ;
#27 = PERSON_AND_ORGANIZATION ( #86, #83 ) ;
#28 = DIRECTION ( 'NONE',  ( 3.491481338843133355E-15, -1.224646799147353207E-16, 1.000000000000000000 ) ) ;
#29 = CARTESIAN_POINT ( 'NONE',  ( 6.279189491884141845E-14, -1.978301491901006819E-15, 17.98431348329842905 ) ) ;
#30 = CALENDAR_DATE ( 2021, 1, 11 ) ;
#31 = DIRECTION ( 'NONE',  ( 0.0000000000000000000, 1.000000000000000000, 0.0000000000000000000 ) ) ;
#32 = CIRCLE ( 'NONE', #230, 3.500000000000000000 ) ;
#33 = CARTESIAN_POINT ( 'NONE',  ( -1.520410639060319697E-30, 2.681745977208134205E-32, -4.354629143067658961E-16 ) ) ;
#34 = PERSON_AND_ORGANIZATION ( #86, #83 ) ;
#35 =( LENGTH_UNIT ( ) NAMED_UNIT ( * ) SI_UNIT ( .MILLI., .METRE. ) );
#36 = PERSON_AND_ORGANIZATION_ROLE ( 'creator' ) ;
#37 = VERTEX_POINT ( 'NONE', #186 ) ;
#38 = ADVANCED_FACE ( 'NONE', ( #159, #108 ), #164, .T. ) ;
#39 =( NAMED_UNIT ( * ) PLANE_ANGLE_UNIT ( ) SI_UNIT ( $, .RADIAN. ) );
#40 = SECURITY_CLASSIFICATION ( '', '', #103 ) ;
#41 = EDGE_CURVE ( 'NONE', #144, #144, #32, .T. ) ;
#42 = AXIS2_PLACEMENT_3D ( 'NONE', #152, #232, #199 ) ;
#43 = FACE_OUTER_BOUND ( 'NONE', #13, .T. ) ;
#44 = APPROVAL_DATE_TIME ( #215, #224 ) ;
#45 = APPROVAL_DATE_TIME ( #196, #228 ) ;
#46 = DIRECTION ( 'NONE',  ( 3.491481338843133355E-15, -1.226656096638776648E-16, 1.000000000000000000 ) ) ;
#47 = EDGE_CURVE ( 'NONE', #202, #202, #122, .T. ) ;
#48 = LOCAL_TIME ( 11, 35, 19.00000000000000000, #97 ) ;
#49 = DIRECTION ( 'NONE',  ( 4.275831445896957731E-31, 1.000000000000000000, 1.224646799147353207E-16 ) ) ;
#50 = ORIENTED_EDGE ( 'NONE', *, *, #214, .T. ) ;
#51 = DIRECTION ( 'NONE',  ( -3.491481338843133355E-15, 1.224646799147353207E-16, -1.000000000000000000 ) ) ;
#52 = EDGE_LOOP ( 'NONE', ( #18 ) ) ;
#53 = DATE_AND_TIME ( #30, #235 ) ;
#54 = ORIENTED_EDGE ( 'NONE', *, *, #95, .T. ) ;
#55 = APPROVAL_PERSON_ORGANIZATION ( #56, #149, #60 ) ;
#56 = PERSON_AND_ORGANIZATION ( #86, #83 ) ;
#57 = CC_DESIGN_PERSON_AND_ORGANIZATION_ASSIGNMENT ( #2, #227, ( #7 ) ) ;
#58 = CARTESIAN_POINT ( 'NONE',  ( -3.040821278120639394E-30, -3.550000000000001599, -8.709258286135317921E-16 ) ) ;
#59 = APPROVAL_PERSON_ORGANIZATION ( #34, #228, #240 ) ;
#60 = APPROVAL_ROLE ( '' ) ;
#61 = FACE_OUTER_BOUND ( 'NONE', #136, .T. ) ;
#62 = DIRECTION ( 'NONE',  ( 3.491481338843133355E-15, -1.226656096638776648E-16, 1.000000000000000000 ) ) ;
#63 = AXIS2_PLACEMENT_3D ( 'NONE', #94, #77, #226 ) ;
#64 = FACE_OUTER_BOUND ( 'NONE', #178, .T. ) ;
#65 = CC_DESIGN_PERSON_AND_ORGANIZATION_ASSIGNMENT ( #218, #14, ( #137 ) ) ;
#66 = EDGE_LOOP ( 'NONE', ( #88 ) ) ;
#67 = DIRECTION ( 'NONE',  ( 3.491481338843133355E-15, -1.227517819005651059E-16, 1.000000000000000000 ) ) ;
#68 = EDGE_LOOP ( 'NONE', ( #54 ) ) ;
#69 = DIRECTION ( 'NONE',  ( -4.393421307637210610E-31, -1.000000000000000000, -1.227517819005651059E-16 ) ) ;
#70 = CARTESIAN_POINT ( 'NONE',  ( 5.586370142149013368E-14, -1.734723475976807094E-15, 16.00000000000000000 ) ) ;
#71 = ORIENTED_EDGE ( 'NONE', *, *, #95, .F. ) ;
#72 = ADVANCED_FACE ( 'NONE', ( #17, #91 ), #238, .T. ) ;
#73 = APPLICATION_PROTOCOL_DEFINITION ( 'international standard', 'config_control_design', 1994, #177 ) ;
#74 = EDGE_LOOP ( 'NONE', ( #221 ) ) ;
#75 = AXIS2_PLACEMENT_3D ( 'NONE', #133, #141, #174 ) ;
#76 = UNCERTAINTY_MEASURE_WITH_UNIT (LENGTH_MEASURE( 1.000000000000000082E-05 ), #35, 'distance_accuracy_value', 'NONE');
#77 = DIRECTION ( 'NONE',  ( 3.491481338843133355E-15, -1.224646799147353207E-16, 1.000000000000000000 ) ) ;
#78 = CC_DESIGN_PERSON_AND_ORGANIZATION_ASSIGNMENT ( #100, #197, ( #40 ) ) ;
#79 = CARTESIAN_POINT ( 'NONE',  ( 6.982962677686253892E-16, -2.453312193277551631E-17, 0.1999999999999996225 ) ) ;
#80 = PERSON_AND_ORGANIZATION ( #86, #83 ) ;
#81 = CIRCLE ( 'NONE', #170, 3.749999999999998668 ) ;
#82 = EDGE_CURVE ( 'NONE', #145, #145, #81, .T. ) ;
#83 = ORGANIZATION ( 'UNSPECIFIED', 'UNSPECIFIED', '' ) ;
#84 = ADVANCED_FACE ( 'NONE', ( #85 ), #135, .T. ) ;
#85 = FACE_OUTER_BOUND ( 'NONE', #121, .T. ) ;
#86 = PERSON ( 'UNSPECIFIED', 'UNSPECIFIED', 'UNSPECIFIED', ('UNSPECIFIED'), ('UNSPECIFIED'), ('UNSPECIFIED') ) ;
#87 = FACE_OUTER_BOUND ( 'NONE', #134, .T. ) ;
#88 = ORIENTED_EDGE ( 'NONE', *, *, #41, .T. ) ;
#89 = CIRCLE ( 'NONE', #75, 3.749999999999998668 ) ;
#90 = DIRECTION ( 'NONE',  ( -3.491481338843133355E-15, 1.227517819005651059E-16, -1.000000000000000000 ) ) ;
#91 = FACE_OUTER_BOUND ( 'NONE', #203, .T. ) ;
#92 = EDGE_LOOP ( 'NONE', ( #155 ) ) ;
#93 = CC_DESIGN_APPROVAL ( #224, ( #40 ) ) ;
#94 = CARTESIAN_POINT ( 'NONE',  ( -1.068953943006579689E-30, 3.749385712520244906E-32, -3.061605774930954197E-16 ) ) ;
#95 = EDGE_CURVE ( 'NONE', #22, #22, #200, .T. ) ;
#96 = CARTESIAN_POINT ( 'NONE',  ( 2.199633243471174140E-13, 3.499999999999992450, 63.00000000000000000 ) ) ;
#97 = COORDINATED_UNIVERSAL_TIME_OFFSET ( 1, 0, .AHEAD. ) ;
#98 = AXIS2_PLACEMENT_3D ( 'NONE', #220, #46, #183 ) ;
#99 = ADVANCED_FACE ( 'NONE', ( #239 ), #216, .F. ) ;
#100 = PERSON_AND_ORGANIZATION ( #86, #83 ) ;
#101 = AXIS2_PLACEMENT_3D ( 'NONE', #176, #115, #192 ) ;
#102 = DIRECTION ( 'NONE',  ( -3.491481338843133355E-15, 1.224646799147353207E-16, -1.000000000000000000 ) ) ;
#103 = SECURITY_CLASSIFICATION_LEVEL ( 'unclassified' ) ;
#104 = DIRECTION ( 'NONE',  ( 0.0000000000000000000, -1.000000000000000000, 0.0000000000000000000 ) ) ;
#105 = EDGE_LOOP ( 'NONE', ( #201 ) ) ;
#106 = CARTESIAN_POINT ( 'NONE',  ( 0.0000000000000000000, 0.0000000000000000000, 0.0000000000000000000 ) ) ;
#107 = ORIENTED_EDGE ( 'NONE', *, *, #41, .F. ) ;
#108 = FACE_OUTER_BOUND ( 'NONE', #92, .T. ) ;
#109 = CALENDAR_DATE ( 2021, 1, 11 ) ;
#110 = CC_DESIGN_PERSON_AND_ORGANIZATION_ASSIGNMENT ( #204, #140, ( #137 ) ) ;
#111 = VERTEX_POINT ( 'NONE', #58 ) ;
#112 = FACE_OUTER_BOUND ( 'NONE', #117, .T. ) ;
#113 = MECHANICAL_CONTEXT ( 'NONE', #177, 'mechanical' ) ;
#114 = DATE_TIME_ROLE ( 'creation_date' ) ;
#115 = DIRECTION ( 'NONE',  ( 3.491481338843133355E-15, -1.227517819005651059E-16, 1.000000000000000000 ) ) ;
#116 = DIRECTION ( 'NONE',  ( -4.275831445896958607E-31, -1.000000000000000000, -1.224646799147353207E-16 ) ) ;
#117 = EDGE_LOOP ( 'NONE', ( #157 ) ) ;
#118 = CYLINDRICAL_SURFACE ( 'NONE', #101, 3.749999999999999112 ) ;
#119 = ORIENTED_EDGE ( 'NONE', *, *, #47, .F. ) ;
#120 = DIRECTION ( 'NONE',  ( 4.275831445896958607E-31, 1.000000000000000000, 1.224646799147353207E-16 ) ) ;
#121 = EDGE_LOOP ( 'NONE', ( #50 ) ) ;
#122 = CIRCLE ( 'NONE', #209, 3.999999999999996447 ) ;
#123 = TOROIDAL_SURFACE ( 'NONE', #193, 11.75000000000000000, 8.000000000000000000 ) ;
#124 = DATE_AND_TIME ( #205, #4 ) ;
#125 = CARTESIAN_POINT ( 'NONE',  ( 6.279189491884141845E-14, 3.999999999999994671, 17.98431348329842905 ) ) ;
#126 = CLOSED_SHELL ( 'NONE', ( #72, #10, #219, #184, #99 ) ) ;
#127 = LOCAL_TIME ( 11, 35, 19.00000000000000000, #242 ) ;
#128 = APPROVAL_STATUS ( 'not_yet_approved' ) ;
#129 = CC_DESIGN_APPROVAL ( #149, ( #154 ) ) ;
#130 = CC_DESIGN_SECURITY_CLASSIFICATION ( #40, ( #137 ) ) ;
#131 = DIRECTION ( 'NONE',  ( 0.0000000000000000000, 1.000000000000000000, 0.0000000000000000000 ) ) ;
#132 = COORDINATED_UNIVERSAL_TIME_OFFSET ( 1, 0, .AHEAD. ) ;
#133 = CARTESIAN_POINT ( 'NONE',  ( 5.586370142149013368E-14, -1.964028510409041694E-15, 16.00000000000000000 ) ) ;
#134 = EDGE_LOOP ( 'NONE', ( #107 ) ) ;
#135 = PLANE ( 'NONE',  #6 ) ;
#136 = EDGE_LOOP ( 'NONE', ( #71 ) ) ;
#137 = PRODUCT_DEFINITION_FORMATION_WITH_SPECIFIED_SOURCE ( 'ANY', '', #7, .NOT_KNOWN. ) ;
#138 = CC_DESIGN_PERSON_AND_ORGANIZATION_ASSIGNMENT ( #80, #36, ( #154 ) ) ;
#139 = PLANE ( 'NONE',  #222 ) ;
#140 = PERSON_AND_ORGANIZATION_ROLE ( 'creator' ) ;
#141 = DIRECTION ( 'NONE',  ( 3.491481338843133355E-15, -1.227517819005651059E-16, 1.000000000000000000 ) ) ;
#142 = EDGE_LOOP ( 'NONE', ( #181 ) ) ;
#143 = CC_DESIGN_APPROVAL ( #228, ( #137 ) ) ;
#144 = VERTEX_POINT ( 'NONE', #96 ) ;
#145 = VERTEX_POINT ( 'NONE', #19 ) ;
#146 = CIRCLE ( 'NONE', #212, 3.550000000000001599 ) ;
#147 = AXIS2_PLACEMENT_3D ( 'NONE', #106, #153, #49 ) ;
#148 = COORDINATED_UNIVERSAL_TIME_OFFSET ( 1, 0, .AHEAD. ) ;
#149 = APPROVAL ( #161, 'UNSPECIFIED' ) ;
#150 = ADVANCED_FACE ( 'NONE', ( #64, #43 ), #118, .T. ) ;
#151 = CALENDAR_DATE ( 2021, 1, 11 ) ;
#152 = CARTESIAN_POINT ( 'NONE',  ( 2.199633243471174140E-13, -7.715274834628325378E-15, 63.00000000000000000 ) ) ;
#153 = DIRECTION ( 'NONE',  ( -3.491481338843133355E-15, 1.224646799147353207E-16, -1.000000000000000000 ) ) ;
#154 = PRODUCT_DEFINITION ( 'UNKNOWN', '', #137, #225 ) ;
#155 = ORIENTED_EDGE ( 'NONE', *, *, #5, .F. ) ;
#156 = DIRECTION ( 'NONE',  ( -3.491481338843133355E-15, 1.224646799147353207E-16, -1.000000000000000000 ) ) ;
#157 = ORIENTED_EDGE ( 'NONE', *, *, #23, .F. ) ;
#158 = FACE_OUTER_BOUND ( 'NONE', #74, .T. ) ;
#159 = FACE_BOUND ( 'NONE', #142, .T. ) ;
#160 = ORIENTED_EDGE ( 'NONE', *, *, #5, .T. ) ;
#161 = APPROVAL_STATUS ( 'not_yet_approved' ) ;
#162 = AXIS2_PLACEMENT_3D ( 'NONE', #194, #102, #131 ) ;
#163 = CARTESIAN_POINT ( 'NONE',  ( 2.182175836776958284E-13, 3.999999999999991562, 62.50000000000000000 ) ) ;
#164 = CONICAL_SURFACE ( 'NONE', #98, 3.750000000000000000, 0.7853981633974440602 ) ;
#165 = CARTESIAN_POINT ( 'NONE',  ( 0.0000000000000000000, 0.0000000000000000000, 0.0000000000000000000 ) ) ;
#166 = FACE_BOUND ( 'NONE', #66, .T. ) ;
#167 = CIRCLE ( 'NONE', #15, 3.750000000000000000 ) ;
#168 = CC_DESIGN_DATE_AND_TIME_ASSIGNMENT ( #124, #114, ( #154 ) ) ;
#169 = CONICAL_SURFACE ( 'NONE', #42, 3.500000000000000000, 0.7853981633974471688 ) ;
#170 = AXIS2_PLACEMENT_3D ( 'NONE', #233, #67, #104 ) ;
#171 = FACE_OUTER_BOUND ( 'NONE', #105, .T. ) ;
#172 = SHAPE_DEFINITION_REPRESENTATION ( #211, #243 ) ;
#173 = PRODUCT_RELATED_PRODUCT_CATEGORY ( 'detail', '', ( #7 ) ) ;
#174 = DIRECTION ( 'NONE',  ( 0.0000000000000000000, -1.000000000000000000, 0.0000000000000000000 ) ) ;
#175 = COORDINATED_UNIVERSAL_TIME_OFFSET ( 1, 0, .AHEAD. ) ;
#176 = CARTESIAN_POINT ( 'NONE',  ( -6.413731847436034514E-31, 0.0000000000000000000, -1.836965810494968570E-16 ) ) ;
#177 = APPLICATION_CONTEXT ( 'configuration controlled 3d designs of mechanical parts and assemblies' ) ;
#178 = EDGE_LOOP ( 'NONE', ( #234 ) ) ;
#179 = MANIFOLD_SOLID_BREP ( 'Corps-Déplacer/Copier1[2]', #229 ) ;
#180 = CARTESIAN_POINT ( 'NONE',  ( 5.586370142149013368E-14, 2.999519565323707552E-32, 16.00000000000000000 ) ) ;
#181 = ORIENTED_EDGE ( 'NONE', *, *, #23, .T. ) ;
#182 = MANIFOLD_SOLID_BREP ( 'Corps-Déplacer/Copier1[1]', #126 ) ;
#183 = DIRECTION ( 'NONE',  ( -4.365441207277734308E-31, -1.000000000000000000, -1.228762462150238276E-16 ) ) ;
#184 = ADVANCED_FACE ( 'NONE', ( #171, #158 ), #123, .F. ) ;
#185 = APPROVAL_DATE_TIME ( #189, #149 ) ;
#186 = CARTESIAN_POINT ( 'NONE',  ( 6.982962677686238114E-16, -3.750000000000000000, 0.1999999999999991784 ) ) ;
#187 = APPROVAL_PERSON_ORGANIZATION ( #27, #224, #8 ) ;
#188 = CALENDAR_DATE ( 2021, 1, 11 ) ;
#189 = DATE_AND_TIME ( #109, #48 ) ;
#190 = PLANE ( 'NONE',  #63 ) ;
#191 = LOCAL_TIME ( 11, 35, 19.00000000000000000, #132 ) ;
#192 = DIRECTION ( 'NONE',  ( -4.285855558155653280E-31, -1.000000000000000000, -1.227517819005651059E-16 ) ) ;
#193 = AXIS2_PLACEMENT_3D ( 'NONE', #70, #195, #69 ) ;
#194 = CARTESIAN_POINT ( 'NONE',  ( 2.182175836776958284E-13, -7.654042494670957804E-15, 62.50000000000000000 ) ) ;
#195 = DIRECTION ( 'NONE',  ( 3.491481338843133355E-15, -1.227517819005651059E-16, 1.000000000000000000 ) ) ;
#196 = DATE_AND_TIME ( #188, #127 ) ;
#197 = PERSON_AND_ORGANIZATION_ROLE ( 'classification_officer' ) ;
#198 = CARTESIAN_POINT ( 'NONE',  ( 2.199633243471174140E-13, -7.715274834628325378E-15, 63.00000000000000000 ) ) ;
#199 = DIRECTION ( 'NONE',  ( 0.0000000000000000000, 1.000000000000000000, 0.0000000000000000000 ) ) ;
#200 = CIRCLE ( 'NONE', #162, 3.999999999999999112 ) ;
#201 = ORIENTED_EDGE ( 'NONE', *, *, #82, .T. ) ;
#202 = VERTEX_POINT ( 'NONE', #125 ) ;
#203 = EDGE_LOOP ( 'NONE', ( #119 ) ) ;
#204 = PERSON_AND_ORGANIZATION ( #86, #83 ) ;
#205 = CALENDAR_DATE ( 2021, 1, 11 ) ;
#206 = VERTEX_POINT ( 'NONE', #223 ) ;
#207 = APPLICATION_CONTEXT ( 'configuration controlled 3d designs of mechanical parts and assemblies' ) ;
#208 =( NAMED_UNIT ( * ) SI_UNIT ( $, .STERADIAN. ) SOLID_ANGLE_UNIT ( ) );
#209 = AXIS2_PLACEMENT_3D ( 'NONE', #29, #90, #31 ) ;
#210 = AXIS2_PLACEMENT_3D ( 'NONE', #165, #20, #21 ) ;
#211 = PRODUCT_DEFINITION_SHAPE ( 'NONE', 'NONE',  #154 ) ;
#212 = AXIS2_PLACEMENT_3D ( 'NONE', #33, #16, #26 ) ;
#213 = DIRECTION ( 'NONE',  ( -4.275831445896958607E-31, -1.000000000000000000, -1.224646799147353207E-16 ) ) ;
#214 = EDGE_CURVE ( 'NONE', #206, #206, #89, .T. ) ;
#215 = DATE_AND_TIME ( #151, #191 ) ;
#216 = PLANE ( 'NONE',  #236 ) ;
#217 = CARTESIAN_POINT ( 'NONE',  ( 2.199633243471174140E-13, 2.624579619658239319E-32, 63.00000000000000000 ) ) ;
#218 = PERSON_AND_ORGANIZATION ( #86, #83 ) ;
#219 = ADVANCED_FACE ( 'NONE', ( #87 ), #139, .F. ) ;
#220 = CARTESIAN_POINT ( 'NONE',  ( 6.982962677686253892E-16, -2.453312193277551631E-17, 0.1999999999999996225 ) ) ;
#221 = ORIENTED_EDGE ( 'NONE', *, *, #47, .T. ) ;
#222 = AXIS2_PLACEMENT_3D ( 'NONE', #217, #51, #120 ) ;
#223 = CARTESIAN_POINT ( 'NONE',  ( 5.586370142149013368E-14, -3.750000000000000888, 16.00000000000000000 ) ) ;
#224 = APPROVAL ( #25, 'UNSPECIFIED' ) ;
#225 = DESIGN_CONTEXT ( 'detailed design', #207, 'design' ) ;
#226 = DIRECTION ( 'NONE',  ( -4.275831445896958607E-31, -1.000000000000000000, -1.224646799147353207E-16 ) ) ;
#227 = PERSON_AND_ORGANIZATION_ROLE ( 'design_owner' ) ;
#228 = APPROVAL ( #128, 'UNSPECIFIED' ) ;
#229 = CLOSED_SHELL ( 'NONE', ( #150, #84, #38, #241 ) ) ;
#230 = AXIS2_PLACEMENT_3D ( 'NONE', #198, #156, #11 ) ;
#231 = DATE_TIME_ROLE ( 'classification_date' ) ;
#232 = DIRECTION ( 'NONE',  ( -3.491481338843133355E-15, 1.224646799147353207E-16, -1.000000000000000000 ) ) ;
#233 = CARTESIAN_POINT ( 'NONE',  ( 5.586370142149013368E-14, -1.964028510409041694E-15, 16.00000000000000000 ) ) ;
#234 = ORIENTED_EDGE ( 'NONE', *, *, #214, .F. ) ;
#235 = LOCAL_TIME ( 11, 35, 19.00000000000000000, #175 ) ;
#236 = AXIS2_PLACEMENT_3D ( 'NONE', #237, #12, #213 ) ;
#237 = CARTESIAN_POINT ( 'NONE',  ( 5.586370142149013368E-14, 2.999519565323707552E-32, 16.00000000000000000 ) ) ;
#238 = CYLINDRICAL_SURFACE ( 'NONE', #147, 3.999999999999996447 ) ;
#239 = FACE_OUTER_BOUND ( 'NONE', #52, .T. ) ;
#240 = APPROVAL_ROLE ( '' ) ;
#241 = ADVANCED_FACE ( 'NONE', ( #112 ), #190, .F. ) ;
#242 = COORDINATED_UNIVERSAL_TIME_OFFSET ( 1, 0, .AHEAD. ) ;
#243 = ADVANCED_BREP_SHAPE_REPRESENTATION ( '43920', ( #182, #179, #210 ), #9 ) ;
ENDSEC;
END-ISO-10303-21;
