ISO-10303-21;
HEADER;
FILE_DESCRIPTION (( 'STEP AP203' ),
    '1' );
FILE_NAME ('43809.step',
    '2021-10-15T13:34:55',
    ( '' ),
    ( '' ),
    'SwSTEP 2.0',
    'SolidWorks 2019',
    '' );
FILE_SCHEMA (( 'CONFIG_CONTROL_DESIGN' ));
ENDSEC;

DATA;
#1 = CYLINDRICAL_SURFACE ( 'NONE', #89, 2.899999999999995914 ) ;
#2 =( LENGTH_UNIT ( ) NAMED_UNIT ( * ) SI_UNIT ( .MILLI., .METRE. ) );
#3 = APPLICATION_CONTEXT ( 'configuration controlled 3d designs of mechanical parts and assemblies' ) ;
#4 = COORDINATED_UNIVERSAL_TIME_OFFSET ( 1, 0, .AHEAD. ) ;
#5 = AXIS2_PLACEMENT_3D ( 'NONE', #99, #166, #144 ) ;
#6 = PERSON_AND_ORGANIZATION ( #149, #127 ) ;
#7 = APPROVAL_STATUS ( 'not_yet_approved' ) ;
#8 = APPROVAL ( #178, 'UNSPECIFIED' ) ;
#9 = COORDINATED_UNIVERSAL_TIME_OFFSET ( 1, 0, .AHEAD. ) ;
#10 = MECHANICAL_CONTEXT ( 'NONE', #3, 'mechanical' ) ;
#11 = AXIS2_PLACEMENT_3D ( 'NONE', #91, #90, #108 ) ;
#12 = EDGE_LOOP ( 'NONE', ( #53 ) ) ;
#13 = CARTESIAN_POINT ( 'NONE',  ( 3.685306314420982994E-15, -1.292631448899161911E-16, 1.055513679371997249 ) ) ;
#14 = CONICAL_SURFACE ( 'NONE', #35, 2.399999999999998135, 0.7853981633974479459 ) ;
#15 = FACE_BOUND ( 'NONE', #70, .T. ) ;
#16 = DIRECTION ( 'NONE',  ( 4.275831445896958607E-31, 1.000000000000000000, 1.224646799147353207E-16 ) ) ;
#17 = DIRECTION ( 'NONE',  ( -3.491481338843133355E-15, 1.224646799147353207E-16, -1.000000000000000000 ) ) ;
#18 = DIRECTION ( 'NONE',  ( 0.0000000000000000000, 1.000000000000000000, 0.0000000000000000000 ) ) ;
#19 = CALENDAR_DATE ( 2021, 15, 10 ) ;
#20 = DATE_TIME_ROLE ( 'creation_date' ) ;
#21 = CIRCLE ( 'NONE', #103, 2.399999999999998135 ) ;
#22 = CALENDAR_DATE ( 2021, 15, 10 ) ;
#23 = PRODUCT_RELATED_PRODUCT_CATEGORY ( 'detail', '', ( #49 ) ) ;
#24 = COORDINATED_UNIVERSAL_TIME_OFFSET ( 1, 0, .AHEAD. ) ;
#25 = MANIFOLD_SOLID_BREP ( 'Corps-Déplacer/Copier1[2]', #26 ) ;
#26 = CLOSED_SHELL ( 'NONE', ( #193, #161, #94 ) ) ;
#27 = EDGE_LOOP ( 'NONE', ( #202 ) ) ;
#28 = DIRECTION ( 'NONE',  ( 3.491481338843133355E-15, -1.224646799147353207E-16, 1.000000000000000000 ) ) ;
#29 = DIRECTION ( 'NONE',  ( -3.491481338843133355E-15, 1.224646799147353207E-16, -1.000000000000000000 ) ) ;
#30 = VERTEX_POINT ( 'NONE', #44 ) ;
#31 = DIRECTION ( 'NONE',  ( 0.0000000000000000000, 1.000000000000000000, 0.0000000000000000000 ) ) ;
#32 = PRODUCT_DEFINITION ( 'UNKNOWN', '', #77, #159 ) ;
#33 = CARTESIAN_POINT ( 'NONE',  ( 3.685306314420984572E-15, 2.899999999999990141, 1.055513679371997471 ) ) ;
#34 = APPROVAL_DATE_TIME ( #196, #153 ) ;
#35 = AXIS2_PLACEMENT_3D ( 'NONE', #136, #41, #139 ) ;
#36 = DATE_AND_TIME ( #181, #163 ) ;
#37 = CIRCLE ( 'NONE', #69, 2.899999999999998135 ) ;
#38 = DIRECTION ( 'NONE',  ( -3.491481338843133355E-15, 1.224646799147353207E-16, -1.000000000000000000 ) ) ;
#39 = EDGE_LOOP ( 'NONE', ( #154 ) ) ;
#40 = LOCAL_TIME ( 15, 34, 55.00000000000000000, #24 ) ;
#41 = DIRECTION ( 'NONE',  ( -3.491481338843133355E-15, 1.224646799147353207E-16, -1.000000000000000000 ) ) ;
#42 = AXIS2_PLACEMENT_3D ( 'NONE', #88, #28, #184 ) ;
#43 = DIRECTION ( 'NONE',  ( 4.275831445896959482E-31, 1.000000000000000000, 1.224646799147353207E-16 ) ) ;
#44 = CARTESIAN_POINT ( 'NONE',  ( 2.286920276942252663E-13, 2.899999999999990141, 65.50000000000000000 ) ) ;
#45 = CARTESIAN_POINT ( 'NONE',  ( 0.0000000000000000000, 0.0000000000000000000, 0.0000000000000000000 ) ) ;
#46 = APPROVAL_ROLE ( '' ) ;
#47 = DATE_TIME_ROLE ( 'classification_date' ) ;
#48 = APPROVAL_ROLE ( '' ) ;
#49 = PRODUCT ( '43809', '43809', '', ( #10 ) ) ;
#50 = CIRCLE ( 'NONE', #11, 2.899999999999993694 ) ;
#51 = EDGE_LOOP ( 'NONE', ( #155 ) ) ;
#52 = EDGE_CURVE ( 'NONE', #122, #122, #190, .T. ) ;
#53 = ORIENTED_EDGE ( 'NONE', *, *, #177, .T. ) ;
#54 = EDGE_LOOP ( 'NONE', ( #85 ) ) ;
#55 = CC_DESIGN_APPROVAL ( #8, ( #81 ) ) ;
#56 = DIRECTION ( 'NONE',  ( -4.275831445896958607E-31, -1.000000000000000000, -1.224646799147353207E-16 ) ) ;
#57 = UNCERTAINTY_MEASURE_WITH_UNIT (LENGTH_MEASURE( 1.000000000000000082E-05 ), #2, 'distance_accuracy_value', 'NONE');
#58 = CARTESIAN_POINT ( 'NONE',  ( 3.685306314420982994E-15, -1.292631448899161911E-16, 1.055513679371997249 ) ) ;
#59 = CIRCLE ( 'NONE', #152, 2.899999999999990141 ) ;
#60 = CARTESIAN_POINT ( 'NONE',  ( 9.776147748760773395E-14, 2.899999999999990141, 28.00000000000000000 ) ) ;
#61 = PLANE ( 'NONE',  #201 ) ;
#62 = PERSON_AND_ORGANIZATION ( #149, #127 ) ;
#63 = PERSON_AND_ORGANIZATION_ROLE ( 'design_owner' ) ;
#64 = PERSON_AND_ORGANIZATION ( #149, #127 ) ;
#65 = CC_DESIGN_PERSON_AND_ORGANIZATION_ASSIGNMENT ( #62, #63, ( #49 ) ) ;
#66 = COORDINATED_UNIVERSAL_TIME_OFFSET ( 1, 0, .AHEAD. ) ;
#67 = APPROVAL_PERSON_ORGANIZATION ( #191, #153, #46 ) ;
#68 = PERSON_AND_ORGANIZATION_ROLE ( 'design_supplier' ) ;
#69 = AXIS2_PLACEMENT_3D ( 'NONE', #112, #124, #31 ) ;
#70 = EDGE_LOOP ( 'NONE', ( #150 ) ) ;
#71 = EDGE_CURVE ( 'NONE', #121, #121, #59, .T. ) ;
#72 = DIRECTION ( 'NONE',  ( -3.491481338843133355E-15, 1.224646799147353207E-16, -1.000000000000000000 ) ) ;
#73 = FACE_OUTER_BOUND ( 'NONE', #198, .T. ) ;
#74 = FACE_OUTER_BOUND ( 'NONE', #12, .T. ) ;
#75 = DIRECTION ( 'NONE',  ( -3.491481338843133355E-15, 1.224646799147353207E-16, -1.000000000000000000 ) ) ;
#76 = CC_DESIGN_PERSON_AND_ORGANIZATION_ASSIGNMENT ( #126, #189, ( #81 ) ) ;
#77 = PRODUCT_DEFINITION_FORMATION_WITH_SPECIFIED_SOURCE ( 'ANY', '', #49, .NOT_KNOWN. ) ;
#78 = FACE_OUTER_BOUND ( 'NONE', #170, .T. ) ;
#79 = ADVANCED_FACE ( 'NONE', ( #130 ), #183, .F. ) ;
#80 = CALENDAR_DATE ( 2021, 15, 10 ) ;
#81 = SECURITY_CLASSIFICATION ( '', '', #125 ) ;
#82 = PERSON_AND_ORGANIZATION ( #149, #127 ) ;
#83 = CALENDAR_DATE ( 2021, 15, 10 ) ;
#84 = PERSON_AND_ORGANIZATION_ROLE ( 'creator' ) ;
#85 = ORIENTED_EDGE ( 'NONE', *, *, #71, .T. ) ;
#86 = EDGE_LOOP ( 'NONE', ( #104 ) ) ;
#87 = CARTESIAN_POINT ( 'NONE',  ( 9.776147748760773395E-14, -3.429011037612589276E-15, 28.00000000000000000 ) ) ;
#88 = CARTESIAN_POINT ( 'NONE',  ( 9.776147748760773395E-14, 2.174651684859683678E-32, 28.00000000000000000 ) ) ;
#89 = AXIS2_PLACEMENT_3D ( 'NONE', #203, #75, #43 ) ;
#90 = DIRECTION ( 'NONE',  ( -3.491481338843133355E-15, 1.224646799147353207E-16, -1.000000000000000000 ) ) ;
#91 = CARTESIAN_POINT ( 'NONE',  ( 9.776147748760773395E-14, -3.429011037612589276E-15, 28.00000000000000000 ) ) ;
#92 = VERTEX_POINT ( 'NONE', #119 ) ;
#93 = CARTESIAN_POINT ( 'NONE',  ( 2.304377683636468267E-13, 1.799711739194215445E-32, 66.00000000000000000 ) ) ;
#94 = ADVANCED_FACE ( 'NONE', ( #169 ), #188, .T. ) ;
#95 = DATE_AND_TIME ( #80, #40 ) ;
#96 = DATE_AND_TIME ( #83, #173 ) ;
#97 = ADVANCED_FACE ( 'NONE', ( #107 ), #61, .F. ) ;
#98 = AXIS2_PLACEMENT_3D ( 'NONE', #45, #17, #16 ) ;
#99 = CARTESIAN_POINT ( 'NONE',  ( 0.0000000000000000000, 0.0000000000000000000, 0.0000000000000000000 ) ) ;
#100 = APPROVAL_DATE_TIME ( #36, #8 ) ;
#101 = CC_DESIGN_DATE_AND_TIME_ASSIGNMENT ( #96, #20, ( #32 ) ) ;
#102 = PERSON_AND_ORGANIZATION ( #149, #127 ) ;
#103 = AXIS2_PLACEMENT_3D ( 'NONE', #123, #158, #18 ) ;
#104 = ORIENTED_EDGE ( 'NONE', *, *, #110, .F. ) ;
#105 = DIRECTION ( 'NONE',  ( 0.0000000000000000000, 1.000000000000000000, 0.0000000000000000000 ) ) ;
#106 = LOCAL_TIME ( 15, 34, 55.00000000000000000, #192 ) ;
#107 = FACE_OUTER_BOUND ( 'NONE', #27, .T. ) ;
#108 = DIRECTION ( 'NONE',  ( 0.0000000000000000000, 1.000000000000000000, 0.0000000000000000000 ) ) ;
#109 = APPROVAL_PERSON_ORGANIZATION ( #6, #132, #141 ) ;
#110 = EDGE_CURVE ( 'NONE', #111, #111, #50, .T. ) ;
#111 = VERTEX_POINT ( 'NONE', #174 ) ;
#112 = CARTESIAN_POINT ( 'NONE',  ( 2.286920276942252663E-13, -8.021436534415164826E-15, 65.50000000000000000 ) ) ;
#113 = CC_DESIGN_DATE_AND_TIME_ASSIGNMENT ( #128, #47, ( #81 ) ) ;
#114 = AXIS2_PLACEMENT_3D ( 'NONE', #197, #148, #56 ) ;
#115 = PERSON_AND_ORGANIZATION_ROLE ( 'creator' ) ;
#116 = PRODUCT_DEFINITION_SHAPE ( 'NONE', 'NONE',  #32 ) ;
#117 = ORIENTED_EDGE ( 'NONE', *, *, #52, .F. ) ;
#118 = APPROVAL_PERSON_ORGANIZATION ( #194, #8, #48 ) ;
#119 = CARTESIAN_POINT ( 'NONE',  ( 2.304377683636468267E-13, 2.399999999999989697, 66.00000000000000000 ) ) ;
#120 = EDGE_CURVE ( 'NONE', #92, #92, #21, .T. ) ;
#121 = VERTEX_POINT ( 'NONE', #33 ) ;
#122 = VERTEX_POINT ( 'NONE', #60 ) ;
#123 = CARTESIAN_POINT ( 'NONE',  ( 2.304377683636468267E-13, -8.082668874372532400E-15, 66.00000000000000000 ) ) ;
#124 = DIRECTION ( 'NONE',  ( -3.491481338843133355E-15, 1.224646799147353207E-16, -1.000000000000000000 ) ) ;
#125 = SECURITY_CLASSIFICATION_LEVEL ( 'unclassified' ) ;
#126 = PERSON_AND_ORGANIZATION ( #149, #127 ) ;
#127 = ORGANIZATION ( 'UNSPECIFIED', 'UNSPECIFIED', '' ) ;
#128 = DATE_AND_TIME ( #19, #106 ) ;
#129 = APPLICATION_CONTEXT ( 'configuration controlled 3d designs of mechanical parts and assemblies' ) ;
#130 = FACE_OUTER_BOUND ( 'NONE', #39, .T. ) ;
#131 = ORIENTED_EDGE ( 'NONE', *, *, #71, .F. ) ;
#132 = APPROVAL ( #7, 'UNSPECIFIED' ) ;
#133 = DIRECTION ( 'NONE',  ( 5.312910191413082210E-31, 1.000000000000000000, 1.495451272393804226E-16 ) ) ;
#134 = AXIS2_PLACEMENT_3D ( 'NONE', #87, #38, #105 ) ;
#135 =( NAMED_UNIT ( * ) PLANE_ANGLE_UNIT ( ) SI_UNIT ( $, .RADIAN. ) );
#136 = CARTESIAN_POINT ( 'NONE',  ( 2.304377683636468267E-13, -8.082668874372532400E-15, 66.00000000000000000 ) ) ;
#137 = DIRECTION ( 'NONE',  ( 4.275831445896958607E-31, 1.000000000000000000, 1.224646799147353207E-16 ) ) ;
#138 =( GEOMETRIC_REPRESENTATION_CONTEXT ( 3 ) GLOBAL_UNCERTAINTY_ASSIGNED_CONTEXT ( ( #57 ) ) GLOBAL_UNIT_ASSIGNED_CONTEXT ( ( #2, #135, #162 ) ) REPRESENTATION_CONTEXT ( 'NONE', 'WORKASPACE' ) );
#139 = DIRECTION ( 'NONE',  ( 0.0000000000000000000, 1.000000000000000000, 0.0000000000000000000 ) ) ;
#140 = APPROVAL_STATUS ( 'not_yet_approved' ) ;
#141 = APPROVAL_ROLE ( '' ) ;
#142 = APPLICATION_PROTOCOL_DEFINITION ( 'international standard', 'config_control_design', 1994, #129 ) ;
#143 = CC_DESIGN_PERSON_AND_ORGANIZATION_ASSIGNMENT ( #82, #84, ( #32 ) ) ;
#144 = DIRECTION ( 'NONE',  ( 1.000000000000000000, 0.0000000000000000000, 0.0000000000000000000 ) ) ;
#145 = ADVANCED_BREP_SHAPE_REPRESENTATION ( '43809', ( #147, #25, #5 ), #138 ) ;
#146 = ADVANCED_FACE ( 'NONE', ( #156, #15 ), #14, .T. ) ;
#147 = MANIFOLD_SOLID_BREP ( 'Corps-Déplacer/Copier1[1]', #157 ) ;
#148 = DIRECTION ( 'NONE',  ( 3.491481338843133355E-15, -1.224646799147353207E-16, 1.000000000000000000 ) ) ;
#149 = PERSON ( 'UNSPECIFIED', 'UNSPECIFIED', 'UNSPECIFIED', ('UNSPECIFIED'), ('UNSPECIFIED'), ('UNSPECIFIED') ) ;
#150 = ORIENTED_EDGE ( 'NONE', *, *, #120, .T. ) ;
#151 = AXIS2_PLACEMENT_3D ( 'NONE', #58, #176, #164 ) ;
#152 = AXIS2_PLACEMENT_3D ( 'NONE', #13, #72, #133 ) ;
#153 = APPROVAL ( #140, 'UNSPECIFIED' ) ;
#154 = ORIENTED_EDGE ( 'NONE', *, *, #52, .T. ) ;
#155 = ORIENTED_EDGE ( 'NONE', *, *, #177, .F. ) ;
#156 = FACE_OUTER_BOUND ( 'NONE', #51, .T. ) ;
#157 = CLOSED_SHELL ( 'NONE', ( #79, #180, #146, #97 ) ) ;
#158 = DIRECTION ( 'NONE',  ( -3.491481338843133355E-15, 1.224646799147353207E-16, -1.000000000000000000 ) ) ;
#159 = DESIGN_CONTEXT ( 'detailed design', #129, 'design' ) ;
#160 = CYLINDRICAL_SURFACE ( 'NONE', #98, 2.899999999999991918 ) ;
#161 = ADVANCED_FACE ( 'NONE', ( #175, #78 ), #160, .T. ) ;
#162 =( NAMED_UNIT ( * ) SI_UNIT ( $, .STERADIAN. ) SOLID_ANGLE_UNIT ( ) );
#163 = LOCAL_TIME ( 15, 34, 55.00000000000000000, #4 ) ;
#164 = DIRECTION ( 'NONE',  ( -5.312910191413082210E-31, -1.000000000000000000, -1.495451272393804226E-16 ) ) ;
#165 = APPROVAL_DATE_TIME ( #95, #132 ) ;
#166 = DIRECTION ( 'NONE',  ( 0.0000000000000000000, 0.0000000000000000000, 1.000000000000000000 ) ) ;
#167 = APPLICATION_PROTOCOL_DEFINITION ( 'international standard', 'config_control_design', 1994, #3 ) ;
#168 = SHAPE_DEFINITION_REPRESENTATION ( #116, #145 ) ;
#169 = FACE_OUTER_BOUND ( 'NONE', #86, .T. ) ;
#170 = EDGE_LOOP ( 'NONE', ( #199 ) ) ;
#171 = CC_DESIGN_APPROVAL ( #153, ( #32 ) ) ;
#172 = EDGE_LOOP ( 'NONE', ( #131 ) ) ;
#173 = LOCAL_TIME ( 15, 34, 55.00000000000000000, #66 ) ;
#174 = CARTESIAN_POINT ( 'NONE',  ( 9.776147748760773395E-14, 2.899999999999990141, 28.00000000000000000 ) ) ;
#175 = FACE_OUTER_BOUND ( 'NONE', #172, .T. ) ;
#176 = DIRECTION ( 'NONE',  ( 3.491481338843133355E-15, -1.224646799147353207E-16, 1.000000000000000000 ) ) ;
#177 = EDGE_CURVE ( 'NONE', #30, #30, #37, .T. ) ;
#178 = APPROVAL_STATUS ( 'not_yet_approved' ) ;
#179 = CONICAL_SURFACE ( 'NONE', #151, 2.899999999999990141, 1.221730476396026388 ) ;
#180 = ADVANCED_FACE ( 'NONE', ( #73, #74 ), #1, .T. ) ;
#181 = CALENDAR_DATE ( 2021, 15, 10 ) ;
#182 = CC_DESIGN_SECURITY_CLASSIFICATION ( #81, ( #77 ) ) ;
#183 = PLANE ( 'NONE',  #114 ) ;
#184 = DIRECTION ( 'NONE',  ( -4.275831445896958607E-31, -1.000000000000000000, -1.224646799147353207E-16 ) ) ;
#185 = LOCAL_TIME ( 15, 34, 55.00000000000000000, #9 ) ;
#186 = CC_DESIGN_PERSON_AND_ORGANIZATION_ASSIGNMENT ( #102, #68, ( #77 ) ) ;
#187 = FACE_OUTER_BOUND ( 'NONE', #54, .T. ) ;
#188 = PLANE ( 'NONE',  #42 ) ;
#189 = PERSON_AND_ORGANIZATION_ROLE ( 'classification_officer' ) ;
#190 = CIRCLE ( 'NONE', #134, 2.899999999999993694 ) ;
#191 = PERSON_AND_ORGANIZATION ( #149, #127 ) ;
#192 = COORDINATED_UNIVERSAL_TIME_OFFSET ( 1, 0, .AHEAD. ) ;
#193 = ADVANCED_FACE ( 'NONE', ( #187 ), #179, .T. ) ;
#194 = PERSON_AND_ORGANIZATION ( #149, #127 ) ;
#195 = CC_DESIGN_APPROVAL ( #132, ( #77 ) ) ;
#196 = DATE_AND_TIME ( #22, #185 ) ;
#197 = CARTESIAN_POINT ( 'NONE',  ( 9.776147748760773395E-14, 2.174651684859683678E-32, 28.00000000000000000 ) ) ;
#198 = EDGE_LOOP ( 'NONE', ( #117 ) ) ;
#199 = ORIENTED_EDGE ( 'NONE', *, *, #110, .T. ) ;
#200 = CC_DESIGN_PERSON_AND_ORGANIZATION_ASSIGNMENT ( #64, #115, ( #77 ) ) ;
#201 = AXIS2_PLACEMENT_3D ( 'NONE', #93, #29, #137 ) ;
#202 = ORIENTED_EDGE ( 'NONE', *, *, #120, .F. ) ;
#203 = CARTESIAN_POINT ( 'NONE',  ( 0.0000000000000000000, 0.0000000000000000000, 0.0000000000000000000 ) ) ;
ENDSEC;
END-ISO-10303-21;
