ISO-10303-21;
HEADER;
FILE_DESCRIPTION (( 'STEP AP203' ),
    '1' );
FILE_NAME ('43769.step',
    '2021-10-15T13:34:54',
    ( '' ),
    ( '' ),
    'SwSTEP 2.0',
    'SolidWorks 2019',
    '' );
FILE_SCHEMA (( 'CONFIG_CONTROL_DESIGN' ));
ENDSEC;

DATA;
#1 = FACE_OUTER_BOUND ( 'NONE', #174, .T. ) ;
#2 = MANIFOLD_SOLID_BREP ( 'Corps-Déplacer/Copier1[1]', #153 ) ;
#3 = ADVANCED_FACE ( 'NONE', ( #1, #14 ), #72, .T. ) ;
#4 = DIRECTION ( 'NONE',  ( -3.491481338843133355E-15, 1.224646799147353207E-16, -1.000000000000000000 ) ) ;
#5 = DIRECTION ( 'NONE',  ( 3.491481338843133355E-15, -1.224646799147353207E-16, 1.000000000000000000 ) ) ;
#6 =( LENGTH_UNIT ( ) NAMED_UNIT ( * ) SI_UNIT ( .MILLI., .METRE. ) );
#7 = FACE_OUTER_BOUND ( 'NONE', #74, .T. ) ;
#8 = CARTESIAN_POINT ( 'NONE',  ( 1.291848095371959215E-13, 3.999999999999994671, 37.00000000000000000 ) ) ;
#9 = CC_DESIGN_PERSON_AND_ORGANIZATION_ASSIGNMENT ( #40, #166, ( #159 ) ) ;
#10 = CC_DESIGN_PERSON_AND_ORGANIZATION_ASSIGNMENT ( #120, #56, ( #143 ) ) ;
#11 = PERSON_AND_ORGANIZATION ( #203, #134 ) ;
#12 = ORIENTED_EDGE ( 'NONE', *, *, #141, .F. ) ;
#13 = APPROVAL_DATE_TIME ( #184, #197 ) ;
#14 = FACE_OUTER_BOUND ( 'NONE', #157, .T. ) ;
#15 = ORIENTED_EDGE ( 'NONE', *, *, #110, .T. ) ;
#16 = APPROVAL_PERSON_ORGANIZATION ( #103, #142, #58 ) ;
#17 = EDGE_LOOP ( 'NONE', ( #76 ) ) ;
#18 = LOCAL_TIME ( 15, 34, 54.00000000000000000, #83 ) ;
#19 = ORIENTED_EDGE ( 'NONE', *, *, #141, .T. ) ;
#20 = ADVANCED_FACE ( 'NONE', ( #84 ), #154, .T. ) ;
#21 = DIRECTION ( 'NONE',  ( -3.491481338843133355E-15, 1.224646799147353207E-16, -1.000000000000000000 ) ) ;
#22 = VERTEX_POINT ( 'NONE', #24 ) ;
#23 = CARTESIAN_POINT ( 'NONE',  ( 5.083181123339297607E-15, -1.782939929516089695E-16, 1.455880937064827130 ) ) ;
#24 = CARTESIAN_POINT ( 'NONE',  ( 1.291848095371959215E-13, 3.999999999999994671, 37.00000000000000000 ) ) ;
#25 = ADVANCED_FACE ( 'NONE', ( #123, #59 ), #129, .T. ) ;
#26 = APPROVAL_ROLE ( '' ) ;
#27 = APPROVAL_STATUS ( 'not_yet_approved' ) ;
#28 = APPROVAL_PERSON_ORGANIZATION ( #106, #44, #101 ) ;
#29 = ORIENTED_EDGE ( 'NONE', *, *, #172, .T. ) ;
#30 = DATE_AND_TIME ( #170, #18 ) ;
#31 = AXIS2_PLACEMENT_3D ( 'NONE', #147, #51, #191 ) ;
#32 = FACE_OUTER_BOUND ( 'NONE', #17, .T. ) ;
#33 = CARTESIAN_POINT ( 'NONE',  ( 2.758270257686075477E-13, -9.674709713264090904E-15, 79.00000000000000000 ) ) ;
#34 = CLOSED_SHELL ( 'NONE', ( #90, #3, #20 ) ) ;
#35 = DIRECTION ( 'NONE',  ( -3.851859888774476961E-31, -1.000000000000000000, -1.084202172485505913E-16 ) ) ;
#36 = CARTESIAN_POINT ( 'NONE',  ( 1.291848095371959215E-13, -4.531193156845206793E-15, 37.00000000000000000 ) ) ;
#37 = CC_DESIGN_APPROVAL ( #197, ( #143 ) ) ;
#38 = DIRECTION ( 'NONE',  ( 0.0000000000000000000, 0.0000000000000000000, 1.000000000000000000 ) ) ;
#39 = APPLICATION_PROTOCOL_DEFINITION ( 'international standard', 'config_control_design', 1994, #94 ) ;
#40 = PERSON_AND_ORGANIZATION ( #203, #134 ) ;
#41 = LOCAL_TIME ( 15, 34, 54.00000000000000000, #122 ) ;
#42 = COORDINATED_UNIVERSAL_TIME_OFFSET ( 1, 0, .AHEAD. ) ;
#43 = EDGE_LOOP ( 'NONE', ( #19 ) ) ;
#44 = APPROVAL ( #132, 'UNSPECIFIED' ) ;
#45 = PRODUCT_RELATED_PRODUCT_CATEGORY ( 'detail', '', ( #102 ) ) ;
#46 =( GEOMETRIC_REPRESENTATION_CONTEXT ( 3 ) GLOBAL_UNCERTAINTY_ASSIGNED_CONTEXT ( ( #151 ) ) GLOBAL_UNIT_ASSIGNED_CONTEXT ( ( #6, #192, #113 ) ) REPRESENTATION_CONTEXT ( 'NONE', 'WORKASPACE' ) );
#47 = FACE_OUTER_BOUND ( 'NONE', #171, .T. ) ;
#48 = DIRECTION ( 'NONE',  ( 4.275831445896958607E-31, 1.000000000000000000, 1.224646799147353207E-16 ) ) ;
#49 = CARTESIAN_POINT ( 'NONE',  ( 1.291848095371959215E-13, -4.531193156845206793E-15, 37.00000000000000000 ) ) ;
#50 = CC_DESIGN_DATE_AND_TIME_ASSIGNMENT ( #137, #135, ( #164 ) ) ;
#51 = DIRECTION ( 'NONE',  ( -3.491481338843133355E-15, 1.224646799147353207E-16, -1.000000000000000000 ) ) ;
#52 = APPLICATION_CONTEXT ( 'configuration controlled 3d designs of mechanical parts and assemblies' ) ;
#53 = DIRECTION ( 'NONE',  ( 3.491481338843133355E-15, -1.224646799147353207E-16, 1.000000000000000000 ) ) ;
#54 = PERSON_AND_ORGANIZATION_ROLE ( 'creator' ) ;
#55 = AXIS2_PLACEMENT_3D ( 'NONE', #179, #95, #48 ) ;
#56 = PERSON_AND_ORGANIZATION_ROLE ( 'design_supplier' ) ;
#57 = PRODUCT_DEFINITION_SHAPE ( 'NONE', 'NONE',  #159 ) ;
#58 = APPROVAL_ROLE ( '' ) ;
#59 = FACE_BOUND ( 'NONE', #187, .T. ) ;
#60 = COORDINATED_UNIVERSAL_TIME_OFFSET ( 1, 0, .AHEAD. ) ;
#61 = ORIENTED_EDGE ( 'NONE', *, *, #62, .F. ) ;
#62 = EDGE_CURVE ( 'NONE', #81, #81, #168, .T. ) ;
#63 = DIRECTION ( 'NONE',  ( -3.491481338843133355E-15, 1.224646799147353207E-16, -1.000000000000000000 ) ) ;
#64 = VERTEX_POINT ( 'NONE', #8 ) ;
#65 = CARTESIAN_POINT ( 'NONE',  ( 5.083181123339297607E-15, -1.782939929516089695E-16, 1.455880937064827130 ) ) ;
#66 = LOCAL_TIME ( 15, 34, 54.00000000000000000, #60 ) ;
#67 = SHAPE_DEFINITION_REPRESENTATION ( #57, #79 ) ;
#68 = PERSON_AND_ORGANIZATION ( #203, #134 ) ;
#69 = DESIGN_CONTEXT ( 'detailed design', #52, 'design' ) ;
#70 = MANIFOLD_SOLID_BREP ( 'Corps-Déplacer/Copier1[2]', #34 ) ;
#71 = PERSON_AND_ORGANIZATION ( #203, #134 ) ;
#72 = CYLINDRICAL_SURFACE ( 'NONE', #104, 3.999999999999996447 ) ;
#73 = PERSON_AND_ORGANIZATION_ROLE ( 'classification_officer' ) ;
#74 = EDGE_LOOP ( 'NONE', ( #86 ) ) ;
#75 = EDGE_CURVE ( 'NONE', #64, #64, #131, .T. ) ;
#76 = ORIENTED_EDGE ( 'NONE', *, *, #62, .T. ) ;
#77 = CIRCLE ( 'NONE', #105, 3.999999999999999112 ) ;
#78 = FACE_OUTER_BOUND ( 'NONE', #161, .T. ) ;
#79 = ADVANCED_BREP_SHAPE_REPRESENTATION ( '43769', ( #2, #70, #93 ), #46 ) ;
#80 = CARTESIAN_POINT ( 'NONE',  ( 2.730338406975330915E-13, -9.576737969332302470E-15, 78.20000000000000284 ) ) ;
#81 = VERTEX_POINT ( 'NONE', #92 ) ;
#82 = CALENDAR_DATE ( 2021, 15, 10 ) ;
#83 = COORDINATED_UNIVERSAL_TIME_OFFSET ( 1, 0, .AHEAD. ) ;
#84 = FACE_OUTER_BOUND ( 'NONE', #85, .T. ) ;
#85 = EDGE_LOOP ( 'NONE', ( #173 ) ) ;
#86 = ORIENTED_EDGE ( 'NONE', *, *, #75, .F. ) ;
#87 = ORIENTED_EDGE ( 'NONE', *, *, #110, .F. ) ;
#88 = CIRCLE ( 'NONE', #31, 3.200000000000004619 ) ;
#89 = CONICAL_SURFACE ( 'NONE', #160, 3.999999999999994671, 1.221730476396026388 ) ;
#90 = ADVANCED_FACE ( 'NONE', ( #178 ), #89, .T. ) ;
#91 = DIRECTION ( 'NONE',  ( 3.851859888774476961E-31, 1.000000000000000000, 1.084202172485505913E-16 ) ) ;
#92 = CARTESIAN_POINT ( 'NONE',  ( 2.730338406975330915E-13, 3.999999999999994671, 78.20000000000000284 ) ) ;
#93 = AXIS2_PLACEMENT_3D ( 'NONE', #133, #38, #200 ) ;
#94 = APPLICATION_CONTEXT ( 'configuration controlled 3d designs of mechanical parts and assemblies' ) ;
#95 = DIRECTION ( 'NONE',  ( -3.491481338843133355E-15, 1.224646799147353207E-16, -1.000000000000000000 ) ) ;
#96 = DIRECTION ( 'NONE',  ( 4.275831445896958607E-31, 1.000000000000000000, 1.224646799147353454E-16 ) ) ;
#97 = APPROVAL_DATE_TIME ( #30, #44 ) ;
#98 = AXIS2_PLACEMENT_3D ( 'NONE', #33, #21, #145 ) ;
#99 = PERSON_AND_ORGANIZATION ( #203, #134 ) ;
#100 = ADVANCED_FACE ( 'NONE', ( #7, #32 ), #127, .T. ) ;
#101 = APPROVAL_ROLE ( '' ) ;
#102 = PRODUCT ( '43769', '43769', '', ( #180 ) ) ;
#103 = PERSON_AND_ORGANIZATION ( #203, #134 ) ;
#104 = AXIS2_PLACEMENT_3D ( 'NONE', #140, #138, #202 ) ;
#105 = AXIS2_PLACEMENT_3D ( 'NONE', #36, #63, #109 ) ;
#106 = PERSON_AND_ORGANIZATION ( #203, #134 ) ;
#107 = AXIS2_PLACEMENT_3D ( 'NONE', #80, #162, #149 ) ;
#108 = CC_DESIGN_APPROVAL ( #44, ( #159 ) ) ;
#109 = DIRECTION ( 'NONE',  ( 0.0000000000000000000, 1.000000000000000000, 0.0000000000000000000 ) ) ;
#110 = EDGE_CURVE ( 'NONE', #124, #124, #88, .T. ) ;
#111 = DIRECTION ( 'NONE',  ( -3.491481338843133355E-15, 1.224646799147353207E-16, -1.000000000000000000 ) ) ;
#112 = AXIS2_PLACEMENT_3D ( 'NONE', #201, #136, #199 ) ;
#113 =( NAMED_UNIT ( * ) SI_UNIT ( $, .STERADIAN. ) SOLID_ANGLE_UNIT ( ) );
#114 = AXIS2_PLACEMENT_3D ( 'NONE', #130, #115, #96 ) ;
#115 = DIRECTION ( 'NONE',  ( -3.491481338843133355E-15, 1.224646799147353207E-16, -1.000000000000000000 ) ) ;
#116 = SECURITY_CLASSIFICATION_LEVEL ( 'unclassified' ) ;
#117 = ADVANCED_FACE ( 'NONE', ( #47 ), #193, .F. ) ;
#118 = LOCAL_TIME ( 15, 34, 54.00000000000000000, #42 ) ;
#119 = CC_DESIGN_PERSON_AND_ORGANIZATION_ASSIGNMENT ( #11, #54, ( #143 ) ) ;
#120 = PERSON_AND_ORGANIZATION ( #203, #134 ) ;
#121 = CALENDAR_DATE ( 2021, 15, 10 ) ;
#122 = COORDINATED_UNIVERSAL_TIME_OFFSET ( 1, 0, .AHEAD. ) ;
#123 = FACE_OUTER_BOUND ( 'NONE', #144, .T. ) ;
#124 = VERTEX_POINT ( 'NONE', #189 ) ;
#125 = CIRCLE ( 'NONE', #139, 3.999999999999994671 ) ;
#126 = DIRECTION ( 'NONE',  ( 0.0000000000000000000, 1.000000000000000000, 0.0000000000000000000 ) ) ;
#127 = CYLINDRICAL_SURFACE ( 'NONE', #114, 4.000000000000001776 ) ;
#128 = PLANE ( 'NONE',  #169 ) ;
#129 = CONICAL_SURFACE ( 'NONE', #98, 3.200000000000004619, 0.7853981633974512766 ) ;
#130 = CARTESIAN_POINT ( 'NONE',  ( 0.0000000000000000000, 0.0000000000000000000, 0.0000000000000000000 ) ) ;
#131 = CIRCLE ( 'NONE', #181, 3.999999999999999112 ) ;
#132 = APPROVAL_STATUS ( 'not_yet_approved' ) ;
#133 = CARTESIAN_POINT ( 'NONE',  ( 0.0000000000000000000, 0.0000000000000000000, 0.0000000000000000000 ) ) ;
#134 = ORGANIZATION ( 'UNSPECIFIED', 'UNSPECIFIED', '' ) ;
#135 = DATE_TIME_ROLE ( 'classification_date' ) ;
#136 = DIRECTION ( 'NONE',  ( 3.491481338843133355E-15, -1.224646799147353207E-16, 1.000000000000000000 ) ) ;
#137 = DATE_AND_TIME ( #182, #66 ) ;
#138 = DIRECTION ( 'NONE',  ( -3.491481338843133355E-15, 1.224646799147353207E-16, -1.000000000000000000 ) ) ;
#139 = AXIS2_PLACEMENT_3D ( 'NONE', #65, #111, #91 ) ;
#140 = CARTESIAN_POINT ( 'NONE',  ( 0.0000000000000000000, 0.0000000000000000000, 0.0000000000000000000 ) ) ;
#141 = EDGE_CURVE ( 'NONE', #163, #163, #125, .T. ) ;
#142 = APPROVAL ( #165, 'UNSPECIFIED' ) ;
#143 = PRODUCT_DEFINITION_FORMATION_WITH_SPECIFIED_SOURCE ( 'ANY', '', #102, .NOT_KNOWN. ) ;
#144 = EDGE_LOOP ( 'NONE', ( #61 ) ) ;
#145 = DIRECTION ( 'NONE',  ( 0.0000000000000000000, 1.000000000000000000, 0.0000000000000000000 ) ) ;
#146 = CC_DESIGN_SECURITY_CLASSIFICATION ( #164, ( #143 ) ) ;
#147 = CARTESIAN_POINT ( 'NONE',  ( 2.758270257686075477E-13, -9.674709713264090904E-15, 79.00000000000000000 ) ) ;
#148 = DIRECTION ( 'NONE',  ( -4.275831445896958607E-31, -1.000000000000000000, -1.224646799147353207E-16 ) ) ;
#149 = DIRECTION ( 'NONE',  ( 0.0000000000000000000, 1.000000000000000000, 0.0000000000000000000 ) ) ;
#150 = ADVANCED_FACE ( 'NONE', ( #78 ), #128, .F. ) ;
#151 = UNCERTAINTY_MEASURE_WITH_UNIT (LENGTH_MEASURE( 1.000000000000000082E-05 ), #6, 'distance_accuracy_value', 'NONE');
#152 = COORDINATED_UNIVERSAL_TIME_OFFSET ( 1, 0, .AHEAD. ) ;
#153 = CLOSED_SHELL ( 'NONE', ( #150, #100, #25, #117 ) ) ;
#154 = PLANE ( 'NONE',  #112 ) ;
#155 = DATE_AND_TIME ( #121, #41 ) ;
#156 = DATE_AND_TIME ( #82, #118 ) ;
#157 = EDGE_LOOP ( 'NONE', ( #29 ) ) ;
#158 = LOCAL_TIME ( 15, 34, 54.00000000000000000, #152 ) ;
#159 = PRODUCT_DEFINITION ( 'UNKNOWN', '', #143, #69 ) ;
#160 = AXIS2_PLACEMENT_3D ( 'NONE', #23, #5, #35 ) ;
#161 = EDGE_LOOP ( 'NONE', ( #186 ) ) ;
#162 = DIRECTION ( 'NONE',  ( -3.491481338843133355E-15, 1.224646799147353207E-16, -1.000000000000000000 ) ) ;
#163 = VERTEX_POINT ( 'NONE', #175 ) ;
#164 = SECURITY_CLASSIFICATION ( '', '', #116 ) ;
#165 = APPROVAL_STATUS ( 'not_yet_approved' ) ;
#166 = PERSON_AND_ORGANIZATION_ROLE ( 'creator' ) ;
#167 = CALENDAR_DATE ( 2021, 15, 10 ) ;
#168 = CIRCLE ( 'NONE', #107, 4.000000000000004441 ) ;
#169 = AXIS2_PLACEMENT_3D ( 'NONE', #177, #53, #148 ) ;
#170 = CALENDAR_DATE ( 2021, 15, 10 ) ;
#171 = EDGE_LOOP ( 'NONE', ( #87 ) ) ;
#172 = EDGE_CURVE ( 'NONE', #22, #22, #77, .T. ) ;
#173 = ORIENTED_EDGE ( 'NONE', *, *, #172, .F. ) ;
#174 = EDGE_LOOP ( 'NONE', ( #12 ) ) ;
#175 = CARTESIAN_POINT ( 'NONE',  ( 5.083181123339299184E-15, 3.999999999999994671, 1.455880937064827574 ) ) ;
#176 = CC_DESIGN_DATE_AND_TIME_ASSIGNMENT ( #155, #195, ( #159 ) ) ;
#177 = CARTESIAN_POINT ( 'NONE',  ( 1.291848095371959215E-13, 2.999519565323708100E-32, 37.00000000000000000 ) ) ;
#178 = FACE_OUTER_BOUND ( 'NONE', #43, .T. ) ;
#179 = CARTESIAN_POINT ( 'NONE',  ( 2.758270257686075477E-13, 2.399615652258961499E-32, 79.00000000000000000 ) ) ;
#180 = MECHANICAL_CONTEXT ( 'NONE', #94, 'mechanical' ) ;
#181 = AXIS2_PLACEMENT_3D ( 'NONE', #49, #4, #126 ) ;
#182 = CALENDAR_DATE ( 2021, 15, 10 ) ;
#183 = CC_DESIGN_PERSON_AND_ORGANIZATION_ASSIGNMENT ( #71, #73, ( #164 ) ) ;
#184 = DATE_AND_TIME ( #167, #158 ) ;
#185 = CC_DESIGN_APPROVAL ( #142, ( #164 ) ) ;
#186 = ORIENTED_EDGE ( 'NONE', *, *, #75, .T. ) ;
#187 = EDGE_LOOP ( 'NONE', ( #15 ) ) ;
#188 = APPROVAL_PERSON_ORGANIZATION ( #68, #197, #26 ) ;
#189 = CARTESIAN_POINT ( 'NONE',  ( 2.758270257686075477E-13, 3.199999999999994849, 79.00000000000000000 ) ) ;
#190 = CC_DESIGN_PERSON_AND_ORGANIZATION_ASSIGNMENT ( #99, #196, ( #102 ) ) ;
#191 = DIRECTION ( 'NONE',  ( 0.0000000000000000000, 1.000000000000000000, 0.0000000000000000000 ) ) ;
#192 =( NAMED_UNIT ( * ) PLANE_ANGLE_UNIT ( ) SI_UNIT ( $, .RADIAN. ) );
#193 = PLANE ( 'NONE',  #55 ) ;
#194 = APPLICATION_PROTOCOL_DEFINITION ( 'international standard', 'config_control_design', 1994, #52 ) ;
#195 = DATE_TIME_ROLE ( 'creation_date' ) ;
#196 = PERSON_AND_ORGANIZATION_ROLE ( 'design_owner' ) ;
#197 = APPROVAL ( #27, 'UNSPECIFIED' ) ;
#198 = APPROVAL_DATE_TIME ( #156, #142 ) ;
#199 = DIRECTION ( 'NONE',  ( -4.275831445896958607E-31, -1.000000000000000000, -1.224646799147353207E-16 ) ) ;
#200 = DIRECTION ( 'NONE',  ( 1.000000000000000000, 0.0000000000000000000, 0.0000000000000000000 ) ) ;
#201 = CARTESIAN_POINT ( 'NONE',  ( 1.291848095371959215E-13, 2.999519565323708100E-32, 37.00000000000000000 ) ) ;
#202 = DIRECTION ( 'NONE',  ( 4.275831445896957731E-31, 1.000000000000000000, 1.224646799147353207E-16 ) ) ;
#203 = PERSON ( 'UNSPECIFIED', 'UNSPECIFIED', 'UNSPECIFIED', ('UNSPECIFIED'), ('UNSPECIFIED'), ('UNSPECIFIED') ) ;
ENDSEC;
END-ISO-10303-21;
