ISO-10303-21;
HEADER;
FILE_DESCRIPTION (( 'STEP AP203' ),
    '1' );
FILE_NAME ('43738.step',
    '2021-10-15T13:34:54',
    ( '' ),
    ( '' ),
    'SwSTEP 2.0',
    'SolidWorks 2019',
    '' );
FILE_SCHEMA (( 'CONFIG_CONTROL_DESIGN' ));
ENDSEC;

DATA;
#1 = DIRECTION ( 'NONE',  ( 4.275831445896958607E-31, 1.000000000000000000, 1.224646799147353207E-16 ) ) ;
#2 = AXIS2_PLACEMENT_3D ( 'NONE', #13, #154, #58 ) ;
#3 = APPROVAL_DATE_TIME ( #5, #161 ) ;
#4 = DIRECTION ( 'NONE',  ( 0.0000000000000000000, 0.0000000000000000000, 1.000000000000000000 ) ) ;
#5 = DATE_AND_TIME ( #142, #72 ) ;
#6 = APPROVAL_ROLE ( '' ) ;
#7 = ADVANCED_BREP_SHAPE_REPRESENTATION ( '43738', ( #146, #9, #140 ), #56 ) ;
#8 = DIRECTION ( 'NONE',  ( 4.275831445896958607E-31, 1.000000000000000000, 1.224646799147352961E-16 ) ) ;
#9 = MANIFOLD_SOLID_BREP ( 'Corps-Déplacer/Copier1[2]', #111 ) ;
#10 = DIRECTION ( 'NONE',  ( -3.491481338843133355E-15, 1.224646799147353207E-16, -1.000000000000000000 ) ) ;
#11 = AXIS2_PLACEMENT_3D ( 'NONE', #26, #113, #135 ) ;
#12 = CC_DESIGN_APPROVAL ( #98, ( #136 ) ) ;
#13 = CARTESIAN_POINT ( 'NONE',  ( 1.111945870730464301E-15, -3.900181095816420478E-17, 0.3184739549829288530 ) ) ;
#14 = DIRECTION ( 'NONE',  ( -3.491481338843133355E-15, 1.224646799147353207E-16, -1.000000000000000000 ) ) ;
#15 = CARTESIAN_POINT ( 'NONE',  ( 4.189777606611760026E-14, 6.561449049145566822E-33, 12.00000000000000000 ) ) ;
#16 = DIRECTION ( 'NONE',  ( -3.491481338843133355E-15, 1.224646799147353207E-16, -1.000000000000000000 ) ) ;
#17 = APPROVAL_STATUS ( 'not_yet_approved' ) ;
#18 = CIRCLE ( 'NONE', #174, 0.8749999999999948930 ) ;
#19 = APPROVAL_ROLE ( '' ) ;
#20 = APPROVAL_ROLE ( '' ) ;
#21 = DATE_AND_TIME ( #191, #181 ) ;
#22 = ADVANCED_FACE ( 'NONE', ( #64, #198 ), #128, .T. ) ;
#23 = EDGE_LOOP ( 'NONE', ( #169 ) ) ;
#24 = DIRECTION ( 'NONE',  ( -3.491481338843133355E-15, 1.224646799147353207E-16, -1.000000000000000000 ) ) ;
#25 = CARTESIAN_POINT ( 'NONE',  ( 1.111945870730464301E-15, -3.900181095816420478E-17, 0.3184739549829288530 ) ) ;
#26 = CARTESIAN_POINT ( 'NONE',  ( 4.189777606611760026E-14, 6.561449049145566822E-33, 12.00000000000000000 ) ) ;
#27 = CARTESIAN_POINT ( 'NONE',  ( 4.189777606611760026E-14, 0.8749999999999934497, 12.00000000000000000 ) ) ;
#28 =( NAMED_UNIT ( * ) PLANE_ANGLE_UNIT ( ) SI_UNIT ( $, .RADIAN. ) );
#29 = DATE_AND_TIME ( #108, #75 ) ;
#30 = EDGE_CURVE ( 'NONE', #103, #103, #106, .T. ) ;
#31 = COORDINATED_UNIVERSAL_TIME_OFFSET ( 1, 0, .AHEAD. ) ;
#32 = CALENDAR_DATE ( 2021, 15, 10 ) ;
#33 = COORDINATED_UNIVERSAL_TIME_OFFSET ( 1, 0, .AHEAD. ) ;
#34 = DATE_TIME_ROLE ( 'creation_date' ) ;
#35 = ORIENTED_EDGE ( 'NONE', *, *, #176, .F. ) ;
#36 = PLANE ( 'NONE',  #11 ) ;
#37 = CARTESIAN_POINT ( 'NONE',  ( 0.0000000000000000000, 0.0000000000000000000, 0.0000000000000000000 ) ) ;
#38 = CONICAL_SURFACE ( 'NONE', #163, 0.8749999999999934497, 1.221730476396026388 ) ;
#39 = FACE_OUTER_BOUND ( 'NONE', #153, .T. ) ;
#40 = DIRECTION ( 'NONE',  ( -3.491481338843133355E-15, 1.224646799147353207E-16, -1.000000000000000000 ) ) ;
#41 = DIRECTION ( 'NONE',  ( 0.0000000000000000000, 1.000000000000000000, 0.0000000000000000000 ) ) ;
#42 = CYLINDRICAL_SURFACE ( 'NONE', #183, 0.8749999999999941158 ) ;
#43 = DIRECTION ( 'NONE',  ( 1.000000000000000000, 0.0000000000000000000, 0.0000000000000000000 ) ) ;
#44 = PRODUCT_DEFINITION_FORMATION_WITH_SPECIFIED_SOURCE ( 'ANY', '', #93, .NOT_KNOWN. ) ;
#45 = PERSON_AND_ORGANIZATION ( #54, #69 ) ;
#46 = ADVANCED_FACE ( 'NONE', ( #200 ), #36, .F. ) ;
#47 = AXIS2_PLACEMENT_3D ( 'NONE', #186, #40, #1 ) ;
#48 = EDGE_LOOP ( 'NONE', ( #112 ) ) ;
#49 = CC_DESIGN_PERSON_AND_ORGANIZATION_ASSIGNMENT ( #105, #63, ( #44 ) ) ;
#50 = CIRCLE ( 'NONE', #157, 0.5749999999999982903 ) ;
#51 = LOCAL_TIME ( 15, 34, 54.00000000000000000, #178 ) ;
#52 = CARTESIAN_POINT ( 'NONE',  ( 0.0000000000000000000, 0.0000000000000000000, 0.0000000000000000000 ) ) ;
#53 = PLANE ( 'NONE',  #47 ) ;
#54 = PERSON ( 'UNSPECIFIED', 'UNSPECIFIED', 'UNSPECIFIED', ('UNSPECIFIED'), ('UNSPECIFIED'), ('UNSPECIFIED') ) ;
#55 = FACE_OUTER_BOUND ( 'NONE', #130, .T. ) ;
#56 =( GEOMETRIC_REPRESENTATION_CONTEXT ( 3 ) GLOBAL_UNCERTAINTY_ASSIGNED_CONTEXT ( ( #184 ) ) GLOBAL_UNIT_ASSIGNED_CONTEXT ( ( #173, #28, #139 ) ) REPRESENTATION_CONTEXT ( 'NONE', 'WORKASPACE' ) );
#57 = DIRECTION ( 'NONE',  ( 0.0000000000000000000, 1.000000000000000000, 0.0000000000000000000 ) ) ;
#58 = DIRECTION ( 'NONE',  ( 4.402125587170857337E-31, 1.000000000000000000, 1.239088197126299938E-16 ) ) ;
#59 = DIRECTION ( 'NONE',  ( -3.491481338843133355E-15, 1.224646799147353207E-16, -1.000000000000000000 ) ) ;
#60 = PERSON_AND_ORGANIZATION ( #54, #69 ) ;
#61 = APPROVAL ( #120, 'UNSPECIFIED' ) ;
#62 = CALENDAR_DATE ( 2021, 15, 10 ) ;
#63 = PERSON_AND_ORGANIZATION_ROLE ( 'creator' ) ;
#64 = FACE_OUTER_BOUND ( 'NONE', #195, .T. ) ;
#65 = EDGE_CURVE ( 'NONE', #133, #133, #83, .T. ) ;
#66 = EDGE_LOOP ( 'NONE', ( #151 ) ) ;
#67 = ORIENTED_EDGE ( 'NONE', *, *, #95, .T. ) ;
#68 = CC_DESIGN_DATE_AND_TIME_ASSIGNMENT ( #165, #34, ( #82 ) ) ;
#69 = ORGANIZATION ( 'UNSPECIFIED', 'UNSPECIFIED', '' ) ;
#70 = CARTESIAN_POINT ( 'NONE',  ( 1.316288464743861212E-13, -4.616918432785521081E-15, 37.69999999999999574 ) ) ;
#71 = CARTESIAN_POINT ( 'NONE',  ( 1.111945870730464695E-15, 0.8749999999999934497, 0.3184739549829289640 ) ) ;
#72 = LOCAL_TIME ( 15, 34, 54.00000000000000000, #31 ) ;
#73 = CC_DESIGN_PERSON_AND_ORGANIZATION_ASSIGNMENT ( #92, #121, ( #44 ) ) ;
#74 = CARTESIAN_POINT ( 'NONE',  ( 1.326762908760390423E-13, 0.5749999999999936273, 38.00000000000000000 ) ) ;
#75 = LOCAL_TIME ( 15, 34, 54.00000000000000000, #110 ) ;
#76 = APPROVAL_DATE_TIME ( #180, #61 ) ;
#77 = PERSON_AND_ORGANIZATION ( #54, #69 ) ;
#78 = CARTESIAN_POINT ( 'NONE',  ( 0.0000000000000000000, 0.0000000000000000000, 0.0000000000000000000 ) ) ;
#79 = AXIS2_PLACEMENT_3D ( 'NONE', #15, #188, #100 ) ;
#80 = APPROVAL_STATUS ( 'not_yet_approved' ) ;
#81 = EDGE_LOOP ( 'NONE', ( #197 ) ) ;
#82 = PRODUCT_DEFINITION ( 'UNKNOWN', '', #44, #155 ) ;
#83 = CIRCLE ( 'NONE', #2, 0.8749999999999934497 ) ;
#84 = ORIENTED_EDGE ( 'NONE', *, *, #65, .T. ) ;
#85 = DIRECTION ( 'NONE',  ( 0.0000000000000000000, 1.000000000000000000, 0.0000000000000000000 ) ) ;
#86 = VERTEX_POINT ( 'NONE', #175 ) ;
#87 = CC_DESIGN_PERSON_AND_ORGANIZATION_ASSIGNMENT ( #144, #104, ( #93 ) ) ;
#88 = CARTESIAN_POINT ( 'NONE',  ( 1.326762908760390423E-13, -4.653657836759941941E-15, 38.00000000000000000 ) ) ;
#89 = VERTEX_POINT ( 'NONE', #137 ) ;
#90 = APPLICATION_PROTOCOL_DEFINITION ( 'international standard', 'config_control_design', 1994, #167 ) ;
#91 = AXIS2_PLACEMENT_3D ( 'NONE', #88, #14, #57 ) ;
#92 = PERSON_AND_ORGANIZATION ( #54, #69 ) ;
#93 = PRODUCT ( '43738', '43738', '', ( #166 ) ) ;
#94 = AXIS2_PLACEMENT_3D ( 'NONE', #129, #10, #132 ) ;
#95 = EDGE_CURVE ( 'NONE', #172, #172, #50, .T. ) ;
#96 = EDGE_LOOP ( 'NONE', ( #67 ) ) ;
#97 = ORIENTED_EDGE ( 'NONE', *, *, #30, .T. ) ;
#98 = APPROVAL ( #80, 'UNSPECIFIED' ) ;
#99 = ADVANCED_FACE ( 'NONE', ( #156 ), #53, .F. ) ;
#100 = DIRECTION ( 'NONE',  ( -4.275831445896958607E-31, -1.000000000000000000, -1.224646799147353207E-16 ) ) ;
#101 = CIRCLE ( 'NONE', #119, 0.8749999999999981126 ) ;
#102 = CC_DESIGN_APPROVAL ( #161, ( #44 ) ) ;
#103 = VERTEX_POINT ( 'NONE', #27 ) ;
#104 = PERSON_AND_ORGANIZATION_ROLE ( 'design_owner' ) ;
#105 = PERSON_AND_ORGANIZATION ( #54, #69 ) ;
#106 = CIRCLE ( 'NONE', #94, 0.8749999999999948930 ) ;
#107 = ADVANCED_FACE ( 'NONE', ( #39, #55 ), #42, .T. ) ;
#108 = CALENDAR_DATE ( 2021, 15, 10 ) ;
#109 = APPLICATION_PROTOCOL_DEFINITION ( 'international standard', 'config_control_design', 1994, #122 ) ;
#110 = COORDINATED_UNIVERSAL_TIME_OFFSET ( 1, 0, .AHEAD. ) ;
#111 = CLOSED_SHELL ( 'NONE', ( #196, #107, #134 ) ) ;
#112 = ORIENTED_EDGE ( 'NONE', *, *, #95, .F. ) ;
#113 = DIRECTION ( 'NONE',  ( 3.491481338843133355E-15, -1.224646799147353207E-16, 1.000000000000000000 ) ) ;
#114 = CC_DESIGN_SECURITY_CLASSIFICATION ( #136, ( #44 ) ) ;
#115 = FACE_OUTER_BOUND ( 'NONE', #66, .T. ) ;
#116 = DIRECTION ( 'NONE',  ( 0.0000000000000000000, 1.000000000000000000, 0.0000000000000000000 ) ) ;
#117 = CARTESIAN_POINT ( 'NONE',  ( 1.326762908760390423E-13, -4.653657836759941941E-15, 38.00000000000000000 ) ) ;
#118 = DIRECTION ( 'NONE',  ( 3.491481338843133355E-15, -1.224646799147353207E-16, 1.000000000000000000 ) ) ;
#119 = AXIS2_PLACEMENT_3D ( 'NONE', #70, #190, #41 ) ;
#120 = APPROVAL_STATUS ( 'not_yet_approved' ) ;
#121 = PERSON_AND_ORGANIZATION_ROLE ( 'design_supplier' ) ;
#122 = APPLICATION_CONTEXT ( 'configuration controlled 3d designs of mechanical parts and assemblies' ) ;
#123 = SECURITY_CLASSIFICATION_LEVEL ( 'unclassified' ) ;
#124 = CLOSED_SHELL ( 'NONE', ( #46, #22, #203, #99 ) ) ;
#125 = APPROVAL_PERSON_ORGANIZATION ( #77, #61, #6 ) ;
#126 = PERSON_AND_ORGANIZATION ( #54, #69 ) ;
#127 = EDGE_CURVE ( 'NONE', #86, #86, #18, .T. ) ;
#128 = CYLINDRICAL_SURFACE ( 'NONE', #145, 0.8749999999999964473 ) ;
#129 = CARTESIAN_POINT ( 'NONE',  ( 4.189777606611760026E-14, -1.469576158976823947E-15, 12.00000000000000000 ) ) ;
#130 = EDGE_LOOP ( 'NONE', ( #97 ) ) ;
#131 = APPROVAL_PERSON_ORGANIZATION ( #45, #98, #19 ) ;
#132 = DIRECTION ( 'NONE',  ( 0.0000000000000000000, 1.000000000000000000, 0.0000000000000000000 ) ) ;
#133 = VERTEX_POINT ( 'NONE', #71 ) ;
#134 = ADVANCED_FACE ( 'NONE', ( #115 ), #138, .T. ) ;
#135 = DIRECTION ( 'NONE',  ( -4.275831445896958607E-31, -1.000000000000000000, -1.224646799147353207E-16 ) ) ;
#136 = SECURITY_CLASSIFICATION ( '', '', #123 ) ;
#137 = CARTESIAN_POINT ( 'NONE',  ( 1.316288464743861212E-13, 0.8749999999999934497, 37.69999999999999574 ) ) ;
#138 = PLANE ( 'NONE',  #79 ) ;
#139 =( NAMED_UNIT ( * ) SI_UNIT ( $, .STERADIAN. ) SOLID_ANGLE_UNIT ( ) );
#140 = AXIS2_PLACEMENT_3D ( 'NONE', #78, #4, #43 ) ;
#141 = PERSON_AND_ORGANIZATION ( #54, #69 ) ;
#142 = CALENDAR_DATE ( 2021, 15, 10 ) ;
#143 = PRODUCT_RELATED_PRODUCT_CATEGORY ( 'detail', '', ( #93 ) ) ;
#144 = PERSON_AND_ORGANIZATION ( #54, #69 ) ;
#145 = AXIS2_PLACEMENT_3D ( 'NONE', #52, #150, #8 ) ;
#146 = MANIFOLD_SOLID_BREP ( 'Corps-Déplacer/Copier1[1]', #124 ) ;
#147 = SHAPE_DEFINITION_REPRESENTATION ( #148, #7 ) ;
#148 = PRODUCT_DEFINITION_SHAPE ( 'NONE', 'NONE',  #82 ) ;
#149 = LOCAL_TIME ( 15, 34, 54.00000000000000000, #192 ) ;
#150 = DIRECTION ( 'NONE',  ( -3.491481338843133355E-15, 1.224646799147353207E-16, -1.000000000000000000 ) ) ;
#151 = ORIENTED_EDGE ( 'NONE', *, *, #30, .F. ) ;
#152 = EDGE_LOOP ( 'NONE', ( #35 ) ) ;
#153 = EDGE_LOOP ( 'NONE', ( #185 ) ) ;
#154 = DIRECTION ( 'NONE',  ( -3.491481338843133355E-15, 1.224646799147353207E-16, -1.000000000000000000 ) ) ;
#155 = DESIGN_CONTEXT ( 'detailed design', #167, 'design' ) ;
#156 = FACE_OUTER_BOUND ( 'NONE', #48, .T. ) ;
#157 = AXIS2_PLACEMENT_3D ( 'NONE', #117, #24, #85 ) ;
#158 = DIRECTION ( 'NONE',  ( -4.402125587170857337E-31, -1.000000000000000000, -1.239088197126299938E-16 ) ) ;
#159 = CC_DESIGN_PERSON_AND_ORGANIZATION_ASSIGNMENT ( #126, #194, ( #136 ) ) ;
#160 = DIRECTION ( 'NONE',  ( 4.275831445896958607E-31, 1.000000000000000000, 1.224646799147353207E-16 ) ) ;
#161 = APPROVAL ( #17, 'UNSPECIFIED' ) ;
#162 = PERSON_AND_ORGANIZATION_ROLE ( 'creator' ) ;
#163 = AXIS2_PLACEMENT_3D ( 'NONE', #25, #118, #158 ) ;
#164 = DATE_TIME_ROLE ( 'classification_date' ) ;
#165 = DATE_AND_TIME ( #62, #51 ) ;
#166 = MECHANICAL_CONTEXT ( 'NONE', #122, 'mechanical' ) ;
#167 = APPLICATION_CONTEXT ( 'configuration controlled 3d designs of mechanical parts and assemblies' ) ;
#168 = ORIENTED_EDGE ( 'NONE', *, *, #127, .F. ) ;
#169 = ORIENTED_EDGE ( 'NONE', *, *, #127, .T. ) ;
#170 = APPROVAL_PERSON_ORGANIZATION ( #60, #161, #20 ) ;
#171 = FACE_OUTER_BOUND ( 'NONE', #152, .T. ) ;
#172 = VERTEX_POINT ( 'NONE', #74 ) ;
#173 =( LENGTH_UNIT ( ) NAMED_UNIT ( * ) SI_UNIT ( .MILLI., .METRE. ) );
#174 = AXIS2_PLACEMENT_3D ( 'NONE', #202, #16, #116 ) ;
#175 = CARTESIAN_POINT ( 'NONE',  ( 4.189777606611760026E-14, 0.8749999999999934497, 12.00000000000000000 ) ) ;
#176 = EDGE_CURVE ( 'NONE', #89, #89, #101, .T. ) ;
#177 = APPROVAL_DATE_TIME ( #29, #98 ) ;
#178 = COORDINATED_UNIVERSAL_TIME_OFFSET ( 1, 0, .AHEAD. ) ;
#179 = CC_DESIGN_DATE_AND_TIME_ASSIGNMENT ( #21, #164, ( #136 ) ) ;
#180 = DATE_AND_TIME ( #32, #149 ) ;
#181 = LOCAL_TIME ( 15, 34, 54.00000000000000000, #33 ) ;
#182 = EDGE_LOOP ( 'NONE', ( #84 ) ) ;
#183 = AXIS2_PLACEMENT_3D ( 'NONE', #37, #59, #160 ) ;
#184 = UNCERTAINTY_MEASURE_WITH_UNIT (LENGTH_MEASURE( 1.000000000000000082E-05 ), #173, 'distance_accuracy_value', 'NONE');
#185 = ORIENTED_EDGE ( 'NONE', *, *, #65, .F. ) ;
#186 = CARTESIAN_POINT ( 'NONE',  ( 1.326762908760390423E-13, 4.311809375152757831E-33, 38.00000000000000000 ) ) ;
#187 = CONICAL_SURFACE ( 'NONE', #91, 0.5749999999999982903, 0.7853981633974452814 ) ;
#188 = DIRECTION ( 'NONE',  ( 3.491481338843133355E-15, -1.224646799147353207E-16, 1.000000000000000000 ) ) ;
#189 = FACE_OUTER_BOUND ( 'NONE', #182, .T. ) ;
#190 = DIRECTION ( 'NONE',  ( -3.491481338843133355E-15, 1.224646799147353207E-16, -1.000000000000000000 ) ) ;
#191 = CALENDAR_DATE ( 2021, 15, 10 ) ;
#192 = COORDINATED_UNIVERSAL_TIME_OFFSET ( 1, 0, .AHEAD. ) ;
#193 = CC_DESIGN_PERSON_AND_ORGANIZATION_ASSIGNMENT ( #141, #162, ( #82 ) ) ;
#194 = PERSON_AND_ORGANIZATION_ROLE ( 'classification_officer' ) ;
#195 = EDGE_LOOP ( 'NONE', ( #168 ) ) ;
#196 = ADVANCED_FACE ( 'NONE', ( #189 ), #38, .T. ) ;
#197 = ORIENTED_EDGE ( 'NONE', *, *, #176, .T. ) ;
#198 = FACE_OUTER_BOUND ( 'NONE', #81, .T. ) ;
#199 = CC_DESIGN_APPROVAL ( #61, ( #82 ) ) ;
#200 = FACE_OUTER_BOUND ( 'NONE', #23, .T. ) ;
#201 = FACE_BOUND ( 'NONE', #96, .T. ) ;
#202 = CARTESIAN_POINT ( 'NONE',  ( 4.189777606611760026E-14, -1.469576158976823947E-15, 12.00000000000000000 ) ) ;
#203 = ADVANCED_FACE ( 'NONE', ( #171, #201 ), #187, .T. ) ;
ENDSEC;
END-ISO-10303-21;
