ISO-10303-21;
HEADER;
FILE_DESCRIPTION (( 'STEP AP203' ),
    '1' );
FILE_NAME ('43726.step',
    '2021-11-09T08:31:32',
    ( '' ),
    ( '' ),
    'SwSTEP 2.0',
    'SolidWorks 2019',
    '' );
FILE_SCHEMA (( 'CONFIG_CONTROL_DESIGN' ));
ENDSEC;

DATA;
#1 = CIRCLE ( 'NONE', #185, 4.499999999999996447 ) ;
#2 = APPROVAL_PERSON_ORGANIZATION ( #115, #137, #5 ) ;
#3 = PERSON_AND_ORGANIZATION ( #76, #163 ) ;
#4 = DIRECTION ( 'NONE',  ( 0.0000000000000000000, 1.000000000000000000, 0.0000000000000000000 ) ) ;
#5 = APPROVAL_ROLE ( '' ) ;
#6 = CC_DESIGN_PERSON_AND_ORGANIZATION_ASSIGNMENT ( #80, #136, ( #183 ) ) ;
#7 = DIRECTION ( 'NONE',  ( -4.275831445896958607E-31, -1.000000000000000000, -1.224646799147353207E-16 ) ) ;
#8 = DATE_TIME_ROLE ( 'classification_date' ) ;
#9 = EDGE_LOOP ( 'NONE', ( #169 ) ) ;
#10 = CARTESIAN_POINT ( 'NONE',  ( 2.339292497024899474E-13, 3.999999999999993339, 67.00000000000000000 ) ) ;
#11 = CYLINDRICAL_SURFACE ( 'NONE', #50, 4.499999999999999112 ) ;
#12 = CALENDAR_DATE ( 2021, 9, 11 ) ;
#13 = APPLICATION_PROTOCOL_DEFINITION ( 'international standard', 'config_control_design', 1994, #202 ) ;
#14 = ADVANCED_FACE ( 'NONE', ( #44, #130 ), #46, .T. ) ;
#15 = DATE_AND_TIME ( #64, #126 ) ;
#16 = ORIENTED_EDGE ( 'NONE', *, *, #51, .T. ) ;
#17 = LOCAL_TIME ( 9, 31, 32.00000000000000000, #147 ) ;
#18 = PRODUCT ( '43726', '43726', '', ( #142 ) ) ;
#19 = APPLICATION_CONTEXT ( 'configuration controlled 3d designs of mechanical parts and assemblies' ) ;
#20 = DIRECTION ( 'NONE',  ( 0.0000000000000000000, 1.000000000000000000, 0.0000000000000000000 ) ) ;
#21 = AXIS2_PLACEMENT_3D ( 'NONE', #190, #196, #59 ) ;
#22 = CALENDAR_DATE ( 2021, 9, 11 ) ;
#23 = DIRECTION ( 'NONE',  ( 4.275831445896957731E-31, 1.000000000000000000, 1.224646799147353207E-16 ) ) ;
#24 = APPLICATION_PROTOCOL_DEFINITION ( 'international standard', 'config_control_design', 1994, #19 ) ;
#25 = CC_DESIGN_PERSON_AND_ORGANIZATION_ASSIGNMENT ( #3, #55, ( #18 ) ) ;
#26 = DIRECTION ( 'NONE',  ( 3.491481338843133355E-15, -1.224646799147353207E-16, 1.000000000000000000 ) ) ;
#27 = PERSON_AND_ORGANIZATION ( #76, #163 ) ;
#28 = VERTEX_POINT ( 'NONE', #47 ) ;
#29 = DIRECTION ( 'NONE',  ( 3.491481338843133355E-15, -1.224646799147353207E-16, 1.000000000000000000 ) ) ;
#30 = DATE_TIME_ROLE ( 'creation_date' ) ;
#31 = DATE_AND_TIME ( #95, #188 ) ;
#32 = AXIS2_PLACEMENT_3D ( 'NONE', #160, #29, #7 ) ;
#33 = AXIS2_PLACEMENT_3D ( 'NONE', #159, #54, #4 ) ;
#34 = EDGE_CURVE ( 'NONE', #161, #161, #116, .T. ) ;
#35 =( GEOMETRIC_REPRESENTATION_CONTEXT ( 3 ) GLOBAL_UNCERTAINTY_ASSIGNED_CONTEXT ( ( #166 ) ) GLOBAL_UNIT_ASSIGNED_CONTEXT ( ( #61, #192, #93 ) ) REPRESENTATION_CONTEXT ( 'NONE', 'WORKASPACE' ) );
#36 = ADVANCED_BREP_SHAPE_REPRESENTATION ( '43726', ( #124, #187, #21 ), #35 ) ;
#37 = EDGE_LOOP ( 'NONE', ( #132 ) ) ;
#38 = DIRECTION ( 'NONE',  ( 0.0000000000000000000, 1.000000000000000000, 0.0000000000000000000 ) ) ;
#39 = AXIS2_PLACEMENT_3D ( 'NONE', #91, #107, #120 ) ;
#40 = CARTESIAN_POINT ( 'NONE',  ( 2.339292497024899474E-13, 2.999519565323704815E-32, 67.00000000000000000 ) ) ;
#41 = DIRECTION ( 'NONE',  ( -3.491481338843133355E-15, 1.224646799147353207E-16, -1.000000000000000000 ) ) ;
#42 = ORIENTED_EDGE ( 'NONE', *, *, #140, .T. ) ;
#43 = PLANE ( 'NONE',  #123 ) ;
#44 = FACE_OUTER_BOUND ( 'NONE', #121, .T. ) ;
#45 = CARTESIAN_POINT ( 'NONE',  ( 2.321835090330683366E-13, 4.499999999999993783, 66.50000000000000000 ) ) ;
#46 = CYLINDRICAL_SURFACE ( 'NONE', #67, 4.499999999999995559 ) ;
#47 = CARTESIAN_POINT ( 'NONE',  ( 6.982962677686266711E-14, 4.499999999999993783, 20.00000000000000000 ) ) ;
#48 = COORDINATED_UNIVERSAL_TIME_OFFSET ( 1, 0, .AHEAD. ) ;
#49 = CC_DESIGN_DATE_AND_TIME_ASSIGNMENT ( #31, #8, ( #65 ) ) ;
#50 = AXIS2_PLACEMENT_3D ( 'NONE', #75, #134, #103 ) ;
#51 = EDGE_CURVE ( 'NONE', #199, #199, #193, .T. ) ;
#52 = PRODUCT_DEFINITION_SHAPE ( 'NONE', 'NONE',  #168 ) ;
#53 = LOCAL_TIME ( 9, 31, 32.00000000000000000, #48 ) ;
#54 = DIRECTION ( 'NONE',  ( -3.491481338843133355E-15, 1.224646799147353207E-16, -1.000000000000000000 ) ) ;
#55 = PERSON_AND_ORGANIZATION_ROLE ( 'design_owner' ) ;
#56 = DIRECTION ( 'NONE',  ( -3.491481338843133355E-15, 1.224646799147353207E-16, -1.000000000000000000 ) ) ;
#57 = CARTESIAN_POINT ( 'NONE',  ( 0.0000000000000000000, 0.0000000000000000000, 0.0000000000000000000 ) ) ;
#58 = PERSON_AND_ORGANIZATION ( #76, #163 ) ;
#59 = DIRECTION ( 'NONE',  ( 1.000000000000000000, 0.0000000000000000000, 0.0000000000000000000 ) ) ;
#60 = CARTESIAN_POINT ( 'NONE',  ( 6.982962677686266711E-14, -2.449293598294706513E-15, 20.00000000000000000 ) ) ;
#61 =( LENGTH_UNIT ( ) NAMED_UNIT ( * ) SI_UNIT ( .MILLI., .METRE. ) );
#62 = FACE_OUTER_BOUND ( 'NONE', #9, .T. ) ;
#63 = APPROVAL_DATE_TIME ( #15, #154 ) ;
#64 = CALENDAR_DATE ( 2021, 9, 11 ) ;
#65 = SECURITY_CLASSIFICATION ( '', '', #110 ) ;
#66 = ADVANCED_FACE ( 'NONE', ( #100 ), #114, .F. ) ;
#67 = AXIS2_PLACEMENT_3D ( 'NONE', #57, #181, #162 ) ;
#68 = CONICAL_SURFACE ( 'NONE', #182, 4.000000000000000888, 0.7853981633974482790 ) ;
#69 = ORIENTED_EDGE ( 'NONE', *, *, #34, .F. ) ;
#70 = CC_DESIGN_SECURITY_CLASSIFICATION ( #65, ( #183 ) ) ;
#71 = CARTESIAN_POINT ( 'NONE',  ( -9.620681560885841523E-31, 3.374480839430358054E-32, -2.755472714075440612E-16 ) ) ;
#72 = ORIENTED_EDGE ( 'NONE', *, *, #139, .T. ) ;
#73 = EDGE_LOOP ( 'NONE', ( #175 ) ) ;
#74 = APPROVAL_STATUS ( 'not_yet_approved' ) ;
#75 = CARTESIAN_POINT ( 'NONE',  ( 0.0000000000000000000, 0.0000000000000000000, 0.0000000000000000000 ) ) ;
#76 = PERSON ( 'UNSPECIFIED', 'UNSPECIFIED', 'UNSPECIFIED', ('UNSPECIFIED'), ('UNSPECIFIED'), ('UNSPECIFIED') ) ;
#77 = COORDINATED_UNIVERSAL_TIME_OFFSET ( 1, 0, .AHEAD. ) ;
#78 = FACE_OUTER_BOUND ( 'NONE', #79, .T. ) ;
#79 = EDGE_LOOP ( 'NONE', ( #42 ) ) ;
#80 = PERSON_AND_ORGANIZATION ( #76, #163 ) ;
#81 = DIRECTION ( 'NONE',  ( -4.275831445896958607E-31, -1.000000000000000000, -1.224646799147353207E-16 ) ) ;
#82 = DATE_AND_TIME ( #184, #53 ) ;
#83 = SHAPE_DEFINITION_REPRESENTATION ( #52, #36 ) ;
#84 = EDGE_LOOP ( 'NONE', ( #72 ) ) ;
#85 = ADVANCED_FACE ( 'NONE', ( #191, #194 ), #11, .T. ) ;
#86 = ADVANCED_FACE ( 'NONE', ( #200, #144 ), #68, .T. ) ;
#87 = AXIS2_PLACEMENT_3D ( 'NONE', #71, #56, #23 ) ;
#88 = DATE_AND_TIME ( #22, #167 ) ;
#89 = FACE_OUTER_BOUND ( 'NONE', #171, .T. ) ;
#90 = PERSON_AND_ORGANIZATION_ROLE ( 'creator' ) ;
#91 = CARTESIAN_POINT ( 'NONE',  ( 2.339292497024899474E-13, -8.205133554287267548E-15, 67.00000000000000000 ) ) ;
#92 = DATE_AND_TIME ( #12, #17 ) ;
#93 =( NAMED_UNIT ( * ) SI_UNIT ( $, .STERADIAN. ) SOLID_ANGLE_UNIT ( ) );
#94 = ORIENTED_EDGE ( 'NONE', *, *, #140, .F. ) ;
#95 = CALENDAR_DATE ( 2021, 9, 11 ) ;
#96 = DESIGN_CONTEXT ( 'detailed design', #19, 'design' ) ;
#97 = CC_DESIGN_DATE_AND_TIME_ASSIGNMENT ( #92, #30, ( #168 ) ) ;
#98 = AXIS2_PLACEMENT_3D ( 'NONE', #104, #26, #158 ) ;
#99 = CLOSED_SHELL ( 'NONE', ( #180, #14, #122 ) ) ;
#100 = FACE_OUTER_BOUND ( 'NONE', #119, .T. ) ;
#101 = CIRCLE ( 'NONE', #33, 4.500000000000001776 ) ;
#102 = CARTESIAN_POINT ( 'NONE',  ( -4.810340780442920762E-31, 1.687240419715179027E-32, -1.377736357037720306E-16 ) ) ;
#103 = DIRECTION ( 'NONE',  ( 4.275831445896958607E-31, 1.000000000000000000, 1.224646799147352961E-16 ) ) ;
#104 = CARTESIAN_POINT ( 'NONE',  ( 6.982962677686266711E-14, 3.374459510989173049E-32, 20.00000000000000000 ) ) ;
#105 = APPROVAL_DATE_TIME ( #82, #113 ) ;
#106 = DIRECTION ( 'NONE',  ( 3.491481338843133355E-15, -1.224646799147353207E-16, 1.000000000000000000 ) ) ;
#107 = DIRECTION ( 'NONE',  ( -3.491481338843133355E-15, 1.224646799147353207E-16, -1.000000000000000000 ) ) ;
#108 = VERTEX_POINT ( 'NONE', #45 ) ;
#109 = APPROVAL_PERSON_ORGANIZATION ( #58, #154, #151 ) ;
#110 = SECURITY_CLASSIFICATION_LEVEL ( 'unclassified' ) ;
#111 = AXIS2_PLACEMENT_3D ( 'NONE', #102, #106, #81 ) ;
#112 = APPROVAL_PERSON_ORGANIZATION ( #176, #113, #179 ) ;
#113 = APPROVAL ( #195, 'UNSPECIFIED' ) ;
#114 = PLANE ( 'NONE',  #32 ) ;
#115 = PERSON_AND_ORGANIZATION ( #76, #163 ) ;
#116 = CIRCLE ( 'NONE', #39, 4.000000000000000888 ) ;
#117 = DIRECTION ( 'NONE',  ( -3.491481338843133355E-15, 1.224646799147353207E-16, -1.000000000000000000 ) ) ;
#118 = APPROVAL_STATUS ( 'not_yet_approved' ) ;
#119 = EDGE_LOOP ( 'NONE', ( #16 ) ) ;
#120 = DIRECTION ( 'NONE',  ( 0.0000000000000000000, 1.000000000000000000, 0.0000000000000000000 ) ) ;
#121 = EDGE_LOOP ( 'NONE', ( #94 ) ) ;
#122 = ADVANCED_FACE ( 'NONE', ( #62 ), #189, .T. ) ;
#123 = AXIS2_PLACEMENT_3D ( 'NONE', #40, #133, #127 ) ;
#124 = MANIFOLD_SOLID_BREP ( 'Corps-Déplacer/Copier1[1]', #165 ) ;
#125 = EDGE_CURVE ( 'NONE', #28, #28, #1, .T. ) ;
#126 = LOCAL_TIME ( 9, 31, 32.00000000000000000, #77 ) ;
#127 = DIRECTION ( 'NONE',  ( 4.275831445896958607E-31, 1.000000000000000000, 1.224646799147353207E-16 ) ) ;
#128 = DIRECTION ( 'NONE',  ( -3.491481338843133355E-15, 1.224646799147353207E-16, -1.000000000000000000 ) ) ;
#129 = CARTESIAN_POINT ( 'NONE',  ( 6.982962677686266711E-14, 4.499999999999993783, 20.00000000000000000 ) ) ;
#130 = FACE_OUTER_BOUND ( 'NONE', #150, .T. ) ;
#131 = PERSON_AND_ORGANIZATION_ROLE ( 'creator' ) ;
#132 = ORIENTED_EDGE ( 'NONE', *, *, #139, .F. ) ;
#133 = DIRECTION ( 'NONE',  ( -3.491481338843133355E-15, 1.224646799147353207E-16, -1.000000000000000000 ) ) ;
#134 = DIRECTION ( 'NONE',  ( -3.491481338843133355E-15, 1.224646799147353207E-16, -1.000000000000000000 ) ) ;
#135 = VERTEX_POINT ( 'NONE', #177 ) ;
#136 = PERSON_AND_ORGANIZATION_ROLE ( 'design_supplier' ) ;
#137 = APPROVAL ( #118, 'UNSPECIFIED' ) ;
#138 = CC_DESIGN_APPROVAL ( #137, ( #168 ) ) ;
#139 = EDGE_CURVE ( 'NONE', #108, #108, #101, .T. ) ;
#140 = EDGE_CURVE ( 'NONE', #135, #135, #141, .T. ) ;
#141 = CIRCLE ( 'NONE', #87, 4.499999999999993783 ) ;
#142 = MECHANICAL_CONTEXT ( 'NONE', #202, 'mechanical' ) ;
#143 = CC_DESIGN_APPROVAL ( #113, ( #183 ) ) ;
#144 = FACE_BOUND ( 'NONE', #73, .T. ) ;
#145 = APPROVAL_DATE_TIME ( #88, #137 ) ;
#146 = CARTESIAN_POINT ( 'NONE',  ( 6.982962677686266711E-14, -2.449293598294706513E-15, 20.00000000000000000 ) ) ;
#147 = COORDINATED_UNIVERSAL_TIME_OFFSET ( 1, 0, .AHEAD. ) ;
#148 = CARTESIAN_POINT ( 'NONE',  ( 2.339292497024899474E-13, -8.205133554287267548E-15, 67.00000000000000000 ) ) ;
#149 = PLANE ( 'NONE',  #111 ) ;
#150 = EDGE_LOOP ( 'NONE', ( #152 ) ) ;
#151 = APPROVAL_ROLE ( '' ) ;
#152 = ORIENTED_EDGE ( 'NONE', *, *, #125, .T. ) ;
#153 = CC_DESIGN_PERSON_AND_ORGANIZATION_ASSIGNMENT ( #174, #90, ( #168 ) ) ;
#154 = APPROVAL ( #74, 'UNSPECIFIED' ) ;
#155 = CC_DESIGN_APPROVAL ( #154, ( #65 ) ) ;
#156 = AXIS2_PLACEMENT_3D ( 'NONE', #146, #128, #38 ) ;
#157 = PRODUCT_RELATED_PRODUCT_CATEGORY ( 'detail', '', ( #18 ) ) ;
#158 = DIRECTION ( 'NONE',  ( -4.275831445896958607E-31, -1.000000000000000000, -1.224646799147353207E-16 ) ) ;
#159 = CARTESIAN_POINT ( 'NONE',  ( 2.321835090330683366E-13, -8.143901214329899974E-15, 66.50000000000000000 ) ) ;
#160 = CARTESIAN_POINT ( 'NONE',  ( 6.982962677686266711E-14, 3.374459510989173049E-32, 20.00000000000000000 ) ) ;
#161 = VERTEX_POINT ( 'NONE', #10 ) ;
#162 = DIRECTION ( 'NONE',  ( 4.275831445896957731E-31, 1.000000000000000000, 1.224646799147353207E-16 ) ) ;
#163 = ORGANIZATION ( 'UNSPECIFIED', 'UNSPECIFIED', '' ) ;
#164 = PERSON_AND_ORGANIZATION ( #76, #163 ) ;
#165 = CLOSED_SHELL ( 'NONE', ( #66, #85, #86, #170 ) ) ;
#166 = UNCERTAINTY_MEASURE_WITH_UNIT (LENGTH_MEASURE( 1.000000000000000082E-05 ), #61, 'distance_accuracy_value', 'NONE');
#167 = LOCAL_TIME ( 9, 31, 32.00000000000000000, #172 ) ;
#168 = PRODUCT_DEFINITION ( 'UNKNOWN', '', #183, #96 ) ;
#169 = ORIENTED_EDGE ( 'NONE', *, *, #125, .F. ) ;
#170 = ADVANCED_FACE ( 'NONE', ( #89 ), #43, .F. ) ;
#171 = EDGE_LOOP ( 'NONE', ( #69 ) ) ;
#172 = COORDINATED_UNIVERSAL_TIME_OFFSET ( 1, 0, .AHEAD. ) ;
#173 = ORIENTED_EDGE ( 'NONE', *, *, #51, .F. ) ;
#174 = PERSON_AND_ORGANIZATION ( #76, #163 ) ;
#175 = ORIENTED_EDGE ( 'NONE', *, *, #34, .T. ) ;
#176 = PERSON_AND_ORGANIZATION ( #76, #163 ) ;
#177 = CARTESIAN_POINT ( 'NONE',  ( 9.620559945650443304E-31, 4.499999999999993783, 2.755437882087641548E-16 ) ) ;
#178 = EDGE_LOOP ( 'NONE', ( #173 ) ) ;
#179 = APPROVAL_ROLE ( '' ) ;
#180 = ADVANCED_FACE ( 'NONE', ( #78 ), #149, .F. ) ;
#181 = DIRECTION ( 'NONE',  ( -3.491481338843133355E-15, 1.224646799147353207E-16, -1.000000000000000000 ) ) ;
#182 = AXIS2_PLACEMENT_3D ( 'NONE', #148, #41, #197 ) ;
#183 = PRODUCT_DEFINITION_FORMATION_WITH_SPECIFIED_SOURCE ( 'ANY', '', #18, .NOT_KNOWN. ) ;
#184 = CALENDAR_DATE ( 2021, 9, 11 ) ;
#185 = AXIS2_PLACEMENT_3D ( 'NONE', #60, #117, #20 ) ;
#186 = CC_DESIGN_PERSON_AND_ORGANIZATION_ASSIGNMENT ( #164, #198, ( #65 ) ) ;
#187 = MANIFOLD_SOLID_BREP ( 'Corps-Déplacer/Copier1[2]', #99 ) ;
#188 = LOCAL_TIME ( 9, 31, 32.00000000000000000, #201 ) ;
#189 = PLANE ( 'NONE',  #98 ) ;
#190 = CARTESIAN_POINT ( 'NONE',  ( 0.0000000000000000000, 0.0000000000000000000, 0.0000000000000000000 ) ) ;
#191 = FACE_OUTER_BOUND ( 'NONE', #178, .T. ) ;
#192 =( NAMED_UNIT ( * ) PLANE_ANGLE_UNIT ( ) SI_UNIT ( $, .RADIAN. ) );
#193 = CIRCLE ( 'NONE', #156, 4.499999999999996447 ) ;
#194 = FACE_OUTER_BOUND ( 'NONE', #84, .T. ) ;
#195 = APPROVAL_STATUS ( 'not_yet_approved' ) ;
#196 = DIRECTION ( 'NONE',  ( 0.0000000000000000000, 0.0000000000000000000, 1.000000000000000000 ) ) ;
#197 = DIRECTION ( 'NONE',  ( 0.0000000000000000000, 1.000000000000000000, 0.0000000000000000000 ) ) ;
#198 = PERSON_AND_ORGANIZATION_ROLE ( 'classification_officer' ) ;
#199 = VERTEX_POINT ( 'NONE', #129 ) ;
#200 = FACE_OUTER_BOUND ( 'NONE', #37, .T. ) ;
#201 = COORDINATED_UNIVERSAL_TIME_OFFSET ( 1, 0, .AHEAD. ) ;
#202 = APPLICATION_CONTEXT ( 'configuration controlled 3d designs of mechanical parts and assemblies' ) ;
#203 = CC_DESIGN_PERSON_AND_ORGANIZATION_ASSIGNMENT ( #27, #131, ( #183 ) ) ;
ENDSEC;
END-ISO-10303-21;
