ISO-10303-21;
HEADER;
FILE_DESCRIPTION (( 'STEP AP203' ),
    '1' );
FILE_NAME ('43673.step',
    '2021-10-13T11:36:23',
    ( '' ),
    ( '' ),
    'SwSTEP 2.0',
    'SolidWorks 2019',
    '' );
FILE_SCHEMA (( 'CONFIG_CONTROL_DESIGN' ));
ENDSEC;

DATA;
#1 = APPLICATION_CONTEXT ( 'configuration controlled 3d designs of mechanical parts and assemblies' ) ;
#2 = PRODUCT_DEFINITION_SHAPE ( 'NONE', 'NONE',  #250 ) ;
#3 = DIRECTION ( 'NONE',  ( 3.491481338843133355E-15, -1.224646799147353207E-16, 1.000000000000000000 ) ) ;
#4 = CLOSED_SHELL ( 'NONE', ( #91, #153, #164 ) ) ;
#5 = LOCAL_TIME ( 13, 36, 23.00000000000000000, #173 ) ;
#6 = DIRECTION ( 'NONE',  ( 0.0000000000000000000, -1.000000000000000000, 0.0000000000000000000 ) ) ;
#7 = DIRECTION ( 'NONE',  ( 3.491481338843133355E-15, -1.224646799147353207E-16, 1.000000000000000000 ) ) ;
#8 = DIRECTION ( 'NONE',  ( -3.491481338843133355E-15, 1.224646799147353207E-16, -1.000000000000000000 ) ) ;
#9 = CC_DESIGN_PERSON_AND_ORGANIZATION_ASSIGNMENT ( #188, #110, ( #258 ) ) ;
#10 = CARTESIAN_POINT ( 'NONE',  ( 3.025763563667724602E-15, -2.381000000000004668, 0.8666131277878404982 ) ) ;
#11 = ORIENTED_EDGE ( 'NONE', *, *, #17, .T. ) ;
#12 = EDGE_LOOP ( 'NONE', ( #216 ) ) ;
#13 = ORGANIZATION ( 'UNSPECIFIED', 'UNSPECIFIED', '' ) ;
#14 = APPLICATION_CONTEXT ( 'configuration controlled 3d designs of mechanical parts and assemblies' ) ;
#15 = DIRECTION ( 'NONE',  ( 0.0000000000000000000, -1.000000000000000000, 0.0000000000000000000 ) ) ;
#16 = AXIS2_PLACEMENT_3D ( 'NONE', #154, #220, #55 ) ;
#17 = EDGE_CURVE ( 'NONE', #138, #138, #123, .T. ) ;
#18 = CARTESIAN_POINT ( 'NONE',  ( 2.304377683636468267E-13, -8.082668874372532400E-15, 66.00000000000000000 ) ) ;
#19 = CYLINDRICAL_SURFACE ( 'NONE', #143, 2.381000000000004668 ) ;
#20 = DIRECTION ( 'NONE',  ( 3.491481338843133355E-15, -4.327174794786742882E-16, 1.000000000000000000 ) ) ;
#21 = DIRECTION ( 'NONE',  ( 4.275831445896958607E-31, 1.000000000000000000, 1.224646799147353207E-16 ) ) ;
#22 = DIRECTION ( 'NONE',  ( -3.491481338843133355E-15, 4.327174794786742882E-16, -1.000000000000000000 ) ) ;
#23 = CARTESIAN_POINT ( 'NONE',  ( 9.426999614876458797E-14, 2.380999999999996675, 26.99999999999999645 ) ) ;
#24 = AXIS2_PLACEMENT_3D ( 'NONE', #18, #90, #56 ) ;
#25 = DIRECTION ( 'NONE',  ( 1.000000000000000000, 0.0000000000000000000, 0.0000000000000000000 ) ) ;
#26 = PERSON_AND_ORGANIZATION ( #165, #13 ) ;
#27 = DIRECTION ( 'NONE',  ( 1.559316754243179172E-30, 1.000000000000000000, 4.327174794786742882E-16 ) ) ;
#28 = COORDINATED_UNIVERSAL_TIME_OFFSET ( 1, 0, .AHEAD. ) ;
#29 = SECURITY_CLASSIFICATION ( '', '', #67 ) ;
#30 = ORIENTED_EDGE ( 'NONE', *, *, #140, .T. ) ;
#31 = SHAPE_DEFINITION_REPRESENTATION ( #2, #152 ) ;
#32 = EDGE_LOOP ( 'NONE', ( #257 ) ) ;
#33 = PERSON_AND_ORGANIZATION_ROLE ( 'design_supplier' ) ;
#34 = AXIS2_PLACEMENT_3D ( 'NONE', #77, #37, #132 ) ;
#35 = CIRCLE ( 'NONE', #252, 2.381000000000008665 ) ;
#36 = CYLINDRICAL_SURFACE ( 'NONE', #16, 2.999999999999992450 ) ;
#37 = DIRECTION ( 'NONE',  ( -3.491481338843133355E-15, 4.327174794786742882E-16, -1.000000000000000000 ) ) ;
#38 = DIRECTION ( 'NONE',  ( -5.135813185032651421E-31, -1.000000000000000000, -1.445602896647345573E-16 ) ) ;
#39 = CARTESIAN_POINT ( 'NONE',  ( 0.0000000000000000000, 0.0000000000000000000, 0.0000000000000000000 ) ) ;
#40 = PLANE ( 'NONE',  #43 ) ;
#41 = VERTEX_POINT ( 'NONE', #65 ) ;
#42 = AXIS2_PLACEMENT_3D ( 'NONE', #73, #218, #15 ) ;
#43 = AXIS2_PLACEMENT_3D ( 'NONE', #182, #160, #97 ) ;
#44 = PRODUCT ( '43673', '43673', '', ( #120 ) ) ;
#45 = DIRECTION ( 'NONE',  ( 0.0000000000000000000, -1.000000000000000000, 0.0000000000000000000 ) ) ;
#46 = APPROVAL_STATUS ( 'not_yet_approved' ) ;
#47 = AXIS2_PLACEMENT_3D ( 'NONE', #163, #206, #25 ) ;
#48 = EDGE_LOOP ( 'NONE', ( #125 ) ) ;
#49 = PERSON_AND_ORGANIZATION_ROLE ( 'classification_officer' ) ;
#50 = ADVANCED_FACE ( 'NONE', ( #60, #197 ), #36, .T. ) ;
#51 = APPROVAL_STATUS ( 'not_yet_approved' ) ;
#52 = ORIENTED_EDGE ( 'NONE', *, *, #245, .T. ) ;
#53 = DIRECTION ( 'NONE',  ( -3.491481338843133355E-15, 1.224646799147353207E-16, -1.000000000000000000 ) ) ;
#54 = LOCAL_TIME ( 13, 36, 23.00000000000000000, #101 ) ;
#55 = DIRECTION ( 'NONE',  ( 4.275831445896958607E-31, 1.000000000000000000, 1.224646799147353207E-16 ) ) ;
#56 = DIRECTION ( 'NONE',  ( 0.0000000000000000000, 1.000000000000000000, 0.0000000000000000000 ) ) ;
#57 = CARTESIAN_POINT ( 'NONE',  ( 6.982962677686266711E-14, -8.654349589573485764E-15, 20.00000000000000000 ) ) ;
#58 = DIRECTION ( 'NONE',  ( -4.275831445896958607E-31, -1.000000000000000000, -1.224646799147353207E-16 ) ) ;
#59 = ADVANCED_FACE ( 'NONE', ( #244, #242 ), #196, .T. ) ;
#60 = FACE_OUTER_BOUND ( 'NONE', #48, .T. ) ;
#61 = CARTESIAN_POINT ( 'NONE',  ( 9.426999614876458797E-14, -1.170938346284344789E-14, 26.99999999999999645 ) ) ;
#62 = LOCAL_TIME ( 13, 36, 23.00000000000000000, #28 ) ;
#63 = CC_DESIGN_PERSON_AND_ORGANIZATION_ASSIGNMENT ( #169, #49, ( #29 ) ) ;
#64 = CARTESIAN_POINT ( 'NONE',  ( 6.982962677686266711E-14, -2.381000000000013106, 20.00000000000000000 ) ) ;
#65 = CARTESIAN_POINT ( 'NONE',  ( 2.304377683636468267E-13, 2.299999999999987388, 66.00000000000000000 ) ) ;
#66 = CIRCLE ( 'NONE', #157, 2.299999999999995826 ) ;
#67 = SECURITY_CLASSIFICATION_LEVEL ( 'unclassified' ) ;
#68 = DATE_TIME_ROLE ( 'creation_date' ) ;
#69 = DATE_AND_TIME ( #260, #62 ) ;
#70 = EDGE_LOOP ( 'NONE', ( #238 ) ) ;
#71 = CC_DESIGN_PERSON_AND_ORGANIZATION_ASSIGNMENT ( #255, #83, ( #250 ) ) ;
#72 = DIRECTION ( 'NONE',  ( 0.0000000000000000000, 1.000000000000000000, 0.0000000000000000000 ) ) ;
#73 = CARTESIAN_POINT ( 'NONE',  ( 1.019726021720848616E-13, -1.263799605539539343E-14, 29.20611404610068362 ) ) ;
#74 = CARTESIAN_POINT ( 'NONE',  ( 9.894889063580733201E-14, -1.226325172550528150E-14, 28.34008864231622837 ) ) ;
#75 = AXIS2_PLACEMENT_3D ( 'NONE', #131, #243, #114 ) ;
#76 = APPROVAL_PERSON_ORGANIZATION ( #232, #223, #128 ) ;
#77 = CARTESIAN_POINT ( 'NONE',  ( 0.0000000000000000000, 0.0000000000000000000, 0.0000000000000000000 ) ) ;
#78 = DIRECTION ( 'NONE',  ( 0.0000000000000000000, 1.000000000000000000, 0.0000000000000000000 ) ) ;
#79 = CC_DESIGN_PERSON_AND_ORGANIZATION_ASSIGNMENT ( #26, #208, ( #44 ) ) ;
#80 = VERTEX_POINT ( 'NONE', #64 ) ;
#81 = CC_DESIGN_APPROVAL ( #96, ( #250 ) ) ;
#82 = DESIGN_CONTEXT ( 'detailed design', #1, 'design' ) ;
#83 = PERSON_AND_ORGANIZATION_ROLE ( 'creator' ) ;
#84 = CC_DESIGN_DATE_AND_TIME_ASSIGNMENT ( #240, #147, ( #29 ) ) ;
#85 = ORIENTED_EDGE ( 'NONE', *, *, #174, .T. ) ;
#86 = DATE_AND_TIME ( #107, #230 ) ;
#87 = EDGE_LOOP ( 'NONE', ( #30 ) ) ;
#88 = PRODUCT_RELATED_PRODUCT_CATEGORY ( 'detail', '', ( #44 ) ) ;
#89 = DIRECTION ( 'NONE',  ( -3.491481338843133355E-15, 4.327174794786742882E-16, -1.000000000000000000 ) ) ;
#90 = DIRECTION ( 'NONE',  ( -3.491481338843133355E-15, 1.224646799147353207E-16, -1.000000000000000000 ) ) ;
#91 = ADVANCED_FACE ( 'NONE', ( #178 ), #162, .T. ) ;
#92 = FACE_OUTER_BOUND ( 'NONE', #241, .T. ) ;
#93 = CARTESIAN_POINT ( 'NONE',  ( 9.426999614876458797E-14, -1.168337194592420420E-14, 26.99999999999999645 ) ) ;
#94 = AXIS2_PLACEMENT_3D ( 'NONE', #179, #3, #58 ) ;
#95 = FACE_OUTER_BOUND ( 'NONE', #87, .T. ) ;
#96 = APPROVAL ( #151, 'UNSPECIFIED' ) ;
#97 = DIRECTION ( 'NONE',  ( -4.275831445896958607E-31, -1.000000000000000000, -1.224646799147353207E-16 ) ) ;
#98 = VERTEX_POINT ( 'NONE', #141 ) ;
#99 = CC_DESIGN_DATE_AND_TIME_ASSIGNMENT ( #149, #68, ( #250 ) ) ;
#100 = LOCAL_TIME ( 13, 36, 23.00000000000000000, #190 ) ;
#101 = COORDINATED_UNIVERSAL_TIME_OFFSET ( 1, 0, .AHEAD. ) ;
#102 = ORIENTED_EDGE ( 'NONE', *, *, #113, .F. ) ;
#103 = CALENDAR_DATE ( 2021, 13, 10 ) ;
#104 = ORIENTED_EDGE ( 'NONE', *, *, #184, .F. ) ;
#105 = EDGE_LOOP ( 'NONE', ( #102 ) ) ;
#106 = CIRCLE ( 'NONE', #262, 2.381000000000004668 ) ;
#107 = CALENDAR_DATE ( 2021, 13, 10 ) ;
#108 = CIRCLE ( 'NONE', #172, 2.381000000000004668 ) ;
#109 = EDGE_LOOP ( 'NONE', ( #146 ) ) ;
#110 = PERSON_AND_ORGANIZATION_ROLE ( 'creator' ) ;
#111 = CYLINDRICAL_SURFACE ( 'NONE', #34, 2.381000000000004668 ) ;
#112 = DIRECTION ( 'NONE',  ( -3.491481338843133355E-15, 1.224646799147353207E-16, -1.000000000000000000 ) ) ;
#113 = EDGE_CURVE ( 'NONE', #227, #227, #207, .T. ) ;
#114 = DIRECTION ( 'NONE',  ( 0.0000000000000000000, 1.000000000000000000, 0.0000000000000000000 ) ) ;
#115 = DIRECTION ( 'NONE',  ( -3.491481338843133355E-15, 4.327174794786742882E-16, -1.000000000000000000 ) ) ;
#116 = FACE_OUTER_BOUND ( 'NONE', #150, .T. ) ;
#117 = ADVANCED_FACE ( 'NONE', ( #198, #116 ), #156, .T. ) ;
#118 = VERTEX_POINT ( 'NONE', #23 ) ;
#119 = AXIS2_PLACEMENT_3D ( 'NONE', #247, #200, #21 ) ;
#120 = MECHANICAL_CONTEXT ( 'NONE', #14, 'mechanical' ) ;
#121 = CARTESIAN_POINT ( 'NONE',  ( 9.894889063580733201E-14, -3.000000000000004441, 28.34008864231622837 ) ) ;
#122 = ADVANCED_FACE ( 'NONE', ( #158 ), #202, .F. ) ;
#123 = CIRCLE ( 'NONE', #256, 2.381000000000004668 ) ;
#124 = APPROVAL_DATE_TIME ( #86, #223 ) ;
#125 = ORIENTED_EDGE ( 'NONE', *, *, #176, .T. ) ;
#126 = PERSON_AND_ORGANIZATION ( #165, #13 ) ;
#127 = ORIENTED_EDGE ( 'NONE', *, *, #176, .F. ) ;
#128 = APPROVAL_ROLE ( '' ) ;
#129 = TOROIDAL_SURFACE ( 'NONE', #139, 3.381000000000008665, 1.000000000000000888 ) ;
#130 = DIRECTION ( 'NONE',  ( -4.853246394927925904E-31, -1.000000000000000000, -1.366067415983413135E-16 ) ) ;
#131 = CARTESIAN_POINT ( 'NONE',  ( 2.279937314264566018E-13, -7.996943598432214956E-15, 65.29999999999999716 ) ) ;
#132 = DIRECTION ( 'NONE',  ( 1.510825004591027679E-30, 1.000000000000000000, 4.327174794786742389E-16 ) ) ;
#133 = ADVANCED_FACE ( 'NONE', ( #195, #181 ), #111, .T. ) ;
#134 = DIRECTION ( 'NONE',  ( 0.0000000000000000000, 1.000000000000000000, 0.0000000000000000000 ) ) ;
#135 = CARTESIAN_POINT ( 'NONE',  ( 3.812385842504460978E-15, -1.337204947137062711E-16, 1.091910702798616573 ) ) ;
#136 = CC_DESIGN_PERSON_AND_ORGANIZATION_ASSIGNMENT ( #126, #33, ( #258 ) ) ;
#137 = CARTESIAN_POINT ( 'NONE',  ( 2.304377683636468267E-13, -8.082668874372532400E-15, 66.00000000000000000 ) ) ;
#138 = VERTEX_POINT ( 'NONE', #10 ) ;
#139 = AXIS2_PLACEMENT_3D ( 'NONE', #61, #22, #27 ) ;
#140 = EDGE_CURVE ( 'NONE', #80, #80, #106, .T. ) ;
#141 = CARTESIAN_POINT ( 'NONE',  ( 6.982962677686266711E-14, -2.381000000000013106, 20.00000000000000000 ) ) ;
#142 = CLOSED_SHELL ( 'NONE', ( #50, #59, #122, #133, #117, #239, #191 ) ) ;
#143 = AXIS2_PLACEMENT_3D ( 'NONE', #39, #89, #177 ) ;
#144 = EDGE_CURVE ( 'NONE', #41, #41, #66, .T. ) ;
#145 = APPROVAL_DATE_TIME ( #69, #96 ) ;
#146 = ORIENTED_EDGE ( 'NONE', *, *, #174, .F. ) ;
#147 = DATE_TIME_ROLE ( 'classification_date' ) ;
#148 = ORIENTED_EDGE ( 'NONE', *, *, #144, .T. ) ;
#149 = DATE_AND_TIME ( #253, #100 ) ;
#150 = EDGE_LOOP ( 'NONE', ( #127 ) ) ;
#151 = APPROVAL_STATUS ( 'not_yet_approved' ) ;
#152 = ADVANCED_BREP_SHAPE_REPRESENTATION ( '43673', ( #219, #217, #47 ), #193 ) ;
#153 = ADVANCED_FACE ( 'NONE', ( #95, #222 ), #19, .T. ) ;
#154 = CARTESIAN_POINT ( 'NONE',  ( 0.0000000000000000000, 0.0000000000000000000, 0.0000000000000000000 ) ) ;
#155 = DIRECTION ( 'NONE',  ( -3.491481338843133355E-15, 1.224646799147353207E-16, -1.000000000000000000 ) ) ;
#156 = CONICAL_SURFACE ( 'NONE', #42, 3.500000000000005329, 0.5235987755983002589 ) ;
#157 = AXIS2_PLACEMENT_3D ( 'NONE', #137, #155, #134 ) ;
#158 = FACE_OUTER_BOUND ( 'NONE', #189, .T. ) ;
#159 = CARTESIAN_POINT ( 'NONE',  ( 9.601573681818616096E-14, -1.189973068566354135E-14, 27.49999999999999645 ) ) ;
#160 = DIRECTION ( 'NONE',  ( 3.491481338843133355E-15, -1.224646799147353207E-16, 1.000000000000000000 ) ) ;
#161 = CARTESIAN_POINT ( 'NONE',  ( 9.601573681818616096E-14, 2.514974596215556968, 27.49999999999999645 ) ) ;
#162 = CONICAL_SURFACE ( 'NONE', #221, 2.999999999999987121, 1.221730476396026610 ) ;
#163 = CARTESIAN_POINT ( 'NONE',  ( 0.0000000000000000000, 0.0000000000000000000, 0.0000000000000000000 ) ) ;
#164 = ADVANCED_FACE ( 'NONE', ( #92 ), #263, .T. ) ;
#165 = PERSON ( 'UNSPECIFIED', 'UNSPECIFIED', 'UNSPECIFIED', ('UNSPECIFIED'), ('UNSPECIFIED'), ('UNSPECIFIED') ) ;
#166 =( LENGTH_UNIT ( ) NAMED_UNIT ( * ) SI_UNIT ( .MILLI., .METRE. ) );
#167 = APPROVAL_PERSON_ORGANIZATION ( #170, #96, #259 ) ;
#168 = APPROVAL_ROLE ( '' ) ;
#169 = PERSON_AND_ORGANIZATION ( #165, #13 ) ;
#170 = PERSON_AND_ORGANIZATION ( #165, #13 ) ;
#171 = EDGE_LOOP ( 'NONE', ( #148 ) ) ;
#172 = AXIS2_PLACEMENT_3D ( 'NONE', #231, #8, #45 ) ;
#173 = COORDINATED_UNIVERSAL_TIME_OFFSET ( 1, 0, .AHEAD. ) ;
#174 = EDGE_CURVE ( 'NONE', #183, #183, #209, .T. ) ;
#175 = AXIS2_PLACEMENT_3D ( 'NONE', #74, #20, #6 ) ;
#176 = EDGE_CURVE ( 'NONE', #203, #203, #180, .T. ) ;
#177 = DIRECTION ( 'NONE',  ( 1.510825004591027679E-30, 1.000000000000000000, 4.327174794786742389E-16 ) ) ;
#178 = FACE_OUTER_BOUND ( 'NONE', #233, .T. ) ;
#179 = CARTESIAN_POINT ( 'NONE',  ( 6.982962677686266711E-14, 2.249639673992774643E-32, 20.00000000000000000 ) ) ;
#180 = CIRCLE ( 'NONE', #175, 2.999999999999992450 ) ;
#181 = FACE_OUTER_BOUND ( 'NONE', #214, .T. ) ;
#182 = CARTESIAN_POINT ( 'NONE',  ( 6.982962677686266711E-14, 2.249639673992774643E-32, 20.00000000000000000 ) ) ;
#183 = VERTEX_POINT ( 'NONE', #161 ) ;
#184 = EDGE_CURVE ( 'NONE', #118, #118, #35, .T. ) ;
#185 = CARTESIAN_POINT ( 'NONE',  ( 2.279937314264566018E-13, 2.999999999999987121, 65.29999999999999716 ) ) ;
#186 = CC_DESIGN_SECURITY_CLASSIFICATION ( #29, ( #258 ) ) ;
#187 = EDGE_LOOP ( 'NONE', ( #104 ) ) ;
#188 = PERSON_AND_ORGANIZATION ( #165, #13 ) ;
#189 = EDGE_LOOP ( 'NONE', ( #236 ) ) ;
#190 = COORDINATED_UNIVERSAL_TIME_OFFSET ( 1, 0, .AHEAD. ) ;
#191 = ADVANCED_FACE ( 'NONE', ( #225 ), #40, .F. ) ;
#192 = ORIENTED_EDGE ( 'NONE', *, *, #245, .F. ) ;
#193 =( GEOMETRIC_REPRESENTATION_CONTEXT ( 3 ) GLOBAL_UNCERTAINTY_ASSIGNED_CONTEXT ( ( #205 ) ) GLOBAL_UNIT_ASSIGNED_CONTEXT ( ( #166, #229, #251 ) ) REPRESENTATION_CONTEXT ( 'NONE', 'WORKASPACE' ) );
#194 = CARTESIAN_POINT ( 'NONE',  ( 3.025763563667725786E-15, -1.061294993044455648E-16, 0.8666131277878408312 ) ) ;
#195 = FACE_OUTER_BOUND ( 'NONE', #12, .T. ) ;
#196 = CONICAL_SURFACE ( 'NONE', #24, 2.299999999999995826, 0.7853981633974433940 ) ;
#197 = FACE_OUTER_BOUND ( 'NONE', #70, .T. ) ;
#198 = FACE_BOUND ( 'NONE', #109, .T. ) ;
#199 = APPROVAL ( #51, 'UNSPECIFIED' ) ;
#200 = DIRECTION ( 'NONE',  ( -3.491481338843133355E-15, 1.224646799147353207E-16, -1.000000000000000000 ) ) ;
#201 = CC_DESIGN_APPROVAL ( #223, ( #29 ) ) ;
#202 = PLANE ( 'NONE',  #119 ) ;
#203 = VERTEX_POINT ( 'NONE', #121 ) ;
#204 = APPLICATION_PROTOCOL_DEFINITION ( 'international standard', 'config_control_design', 1994, #14 ) ;
#205 = UNCERTAINTY_MEASURE_WITH_UNIT (LENGTH_MEASURE( 1.000000000000000082E-05 ), #166, 'distance_accuracy_value', 'NONE');
#206 = DIRECTION ( 'NONE',  ( 0.0000000000000000000, 0.0000000000000000000, 1.000000000000000000 ) ) ;
#207 = CIRCLE ( 'NONE', #75, 2.999999999999994671 ) ;
#208 = PERSON_AND_ORGANIZATION_ROLE ( 'design_owner' ) ;
#209 = CIRCLE ( 'NONE', #226, 2.514974596215568958 ) ;
#210 = APPLICATION_PROTOCOL_DEFINITION ( 'international standard', 'config_control_design', 1994, #1 ) ;
#211 = EDGE_LOOP ( 'NONE', ( #52 ) ) ;
#212 = EDGE_LOOP ( 'NONE', ( #85 ) ) ;
#213 = APPROVAL_DATE_TIME ( #235, #199 ) ;
#214 = EDGE_LOOP ( 'NONE', ( #192 ) ) ;
#215 = CALENDAR_DATE ( 2021, 13, 10 ) ;
#216 = ORIENTED_EDGE ( 'NONE', *, *, #184, .T. ) ;
#217 = MANIFOLD_SOLID_BREP ( 'Corps-Déplacer/Copier1[2]', #4 ) ;
#218 = DIRECTION ( 'NONE',  ( 3.491481338843133355E-15, -4.327174794786742882E-16, 1.000000000000000000 ) ) ;
#219 = MANIFOLD_SOLID_BREP ( 'Corps-Déplacer/Copier1[1]', #142 ) ;
#220 = DIRECTION ( 'NONE',  ( -3.491481338843133355E-15, 1.224646799147353207E-16, -1.000000000000000000 ) ) ;
#221 = AXIS2_PLACEMENT_3D ( 'NONE', #135, #7, #38 ) ;
#222 = FACE_OUTER_BOUND ( 'NONE', #32, .T. ) ;
#223 = APPROVAL ( #46, 'UNSPECIFIED' ) ;
#224 = DIRECTION ( 'NONE',  ( 0.0000000000000000000, -1.000000000000000000, 0.0000000000000000000 ) ) ;
#225 = FACE_OUTER_BOUND ( 'NONE', #211, .T. ) ;
#226 = AXIS2_PLACEMENT_3D ( 'NONE', #159, #115, #72 ) ;
#227 = VERTEX_POINT ( 'NONE', #185 ) ;
#228 = FACE_OUTER_BOUND ( 'NONE', #187, .T. ) ;
#229 =( NAMED_UNIT ( * ) PLANE_ANGLE_UNIT ( ) SI_UNIT ( $, .RADIAN. ) );
#230 = LOCAL_TIME ( 13, 36, 23.00000000000000000, #254 ) ;
#231 = CARTESIAN_POINT ( 'NONE',  ( 6.982962677686266711E-14, -8.654349589573485764E-15, 20.00000000000000000 ) ) ;
#232 = PERSON_AND_ORGANIZATION ( #165, #13 ) ;
#233 = EDGE_LOOP ( 'NONE', ( #11 ) ) ;
#234 = APPROVAL_PERSON_ORGANIZATION ( #237, #199, #168 ) ;
#235 = DATE_AND_TIME ( #215, #54 ) ;
#236 = ORIENTED_EDGE ( 'NONE', *, *, #144, .F. ) ;
#237 = PERSON_AND_ORGANIZATION ( #165, #13 ) ;
#238 = ORIENTED_EDGE ( 'NONE', *, *, #113, .T. ) ;
#239 = ADVANCED_FACE ( 'NONE', ( #228, #249 ), #129, .F. ) ;
#240 = DATE_AND_TIME ( #103, #5 ) ;
#241 = EDGE_LOOP ( 'NONE', ( #261 ) ) ;
#242 = FACE_BOUND ( 'NONE', #171, .T. ) ;
#243 = DIRECTION ( 'NONE',  ( -3.491481338843133355E-15, 1.224646799147353207E-16, -1.000000000000000000 ) ) ;
#244 = FACE_OUTER_BOUND ( 'NONE', #105, .T. ) ;
#245 = EDGE_CURVE ( 'NONE', #98, #98, #108, .T. ) ;
#246 = CC_DESIGN_APPROVAL ( #199, ( #258 ) ) ;
#247 = CARTESIAN_POINT ( 'NONE',  ( 2.304377683636468267E-13, 1.724723750061120649E-32, 66.00000000000000000 ) ) ;
#248 = DIRECTION ( 'NONE',  ( -3.491481338843133355E-15, 4.327174794786742882E-16, -1.000000000000000000 ) ) ;
#249 = FACE_OUTER_BOUND ( 'NONE', #212, .T. ) ;
#250 = PRODUCT_DEFINITION ( 'UNKNOWN', '', #258, #82 ) ;
#251 =( NAMED_UNIT ( * ) SI_UNIT ( $, .STERADIAN. ) SOLID_ANGLE_UNIT ( ) );
#252 = AXIS2_PLACEMENT_3D ( 'NONE', #93, #248, #78 ) ;
#253 = CALENDAR_DATE ( 2021, 13, 10 ) ;
#254 = COORDINATED_UNIVERSAL_TIME_OFFSET ( 1, 0, .AHEAD. ) ;
#255 = PERSON_AND_ORGANIZATION ( #165, #13 ) ;
#256 = AXIS2_PLACEMENT_3D ( 'NONE', #194, #53, #130 ) ;
#257 = ORIENTED_EDGE ( 'NONE', *, *, #17, .F. ) ;
#258 = PRODUCT_DEFINITION_FORMATION_WITH_SPECIFIED_SOURCE ( 'ANY', '', #44, .NOT_KNOWN. ) ;
#259 = APPROVAL_ROLE ( '' ) ;
#260 = CALENDAR_DATE ( 2021, 13, 10 ) ;
#261 = ORIENTED_EDGE ( 'NONE', *, *, #140, .F. ) ;
#262 = AXIS2_PLACEMENT_3D ( 'NONE', #57, #112, #224 ) ;
#263 = PLANE ( 'NONE',  #94 ) ;
ENDSEC;
END-ISO-10303-21;
