ISO-10303-21;
HEADER;
FILE_DESCRIPTION (( 'STEP AP203' ),
    '1' );
FILE_NAME ('43624.step',
    '2021-11-24T08:23:35',
    ( '' ),
    ( '' ),
    'SwSTEP 2.0',
    'SolidWorks 2019',
    '' );
FILE_SCHEMA (( 'CONFIG_CONTROL_DESIGN' ));
ENDSEC;

DATA;
#1 = ORGANIZATION ( 'UNSPECIFIED', 'UNSPECIFIED', '' ) ;
#2 = DIRECTION ( 'NONE',  ( 3.491481338843133355E-15, -1.224646799147353207E-16, 1.000000000000000000 ) ) ;
#3 = PLANE ( 'NONE',  #171 ) ;
#4 = LOCAL_TIME ( 9, 23, 35.00000000000000000, #40 ) ;
#5 = DATE_AND_TIME ( #140, #45 ) ;
#6 = DIRECTION ( 'NONE',  ( 0.0000000000000000000, 0.0000000000000000000, 1.000000000000000000 ) ) ;
#7 = PERSON_AND_ORGANIZATION_ROLE ( 'design_supplier' ) ;
#8 = PERSON_AND_ORGANIZATION_ROLE ( 'creator' ) ;
#9 = DIRECTION ( 'NONE',  ( 0.0000000000000000000, 1.000000000000000000, 0.0000000000000000000 ) ) ;
#10 = AXIS2_PLACEMENT_3D ( 'NONE', #191, #13, #16 ) ;
#11 = CLOSED_SHELL ( 'NONE', ( #200, #163, #26 ) ) ;
#12 = CARTESIAN_POINT ( 'NONE',  ( 8.768763455204716792E-15, -3.075668192302261928E-16, 2.511473670974898376 ) ) ;
#13 = DIRECTION ( 'NONE',  ( -3.491481338843133355E-15, 1.224646799147353207E-16, -1.000000000000000000 ) ) ;
#14 = CARTESIAN_POINT ( 'NONE',  ( 1.326762908760390423E-13, 1.199999999999994182, 38.00000000000000000 ) ) ;
#15 = CC_DESIGN_APPROVAL ( #29, ( #202 ) ) ;
#16 = DIRECTION ( 'NONE',  ( 0.0000000000000000000, 1.000000000000000000, 0.0000000000000000000 ) ) ;
#17 = DIRECTION ( 'NONE',  ( -3.491481338843133355E-15, 1.224646799147353207E-16, -1.000000000000000000 ) ) ;
#18 = ORIENTED_EDGE ( 'NONE', *, *, #111, .F. ) ;
#19 = APPROVAL_ROLE ( '' ) ;
#20 = PRODUCT_RELATED_PRODUCT_CATEGORY ( 'detail', '', ( #135 ) ) ;
#21 = DIRECTION ( 'NONE',  ( 1.000000000000000000, 0.0000000000000000000, 0.0000000000000000000 ) ) ;
#22 = PERSON_AND_ORGANIZATION ( #68, #1 ) ;
#23 = APPROVAL_ROLE ( '' ) ;
#24 = EDGE_CURVE ( 'NONE', #50, #50, #55, .T. ) ;
#25 = DIRECTION ( 'NONE',  ( -4.275831445896958607E-31, -1.000000000000000000, -1.224646799147353207E-16 ) ) ;
#26 = ADVANCED_FACE ( 'NONE', ( #199 ), #62, .T. ) ;
#27 = LOCAL_TIME ( 9, 23, 35.00000000000000000, #122 ) ;
#28 = ADVANCED_BREP_SHAPE_REPRESENTATION ( '43624', ( #124, #187, #170 ), #110 ) ;
#29 = APPROVAL ( #121, 'UNSPECIFIED' ) ;
#30 = CIRCLE ( 'NONE', #127, 1.499999999999994227 ) ;
#31 = UNCERTAINTY_MEASURE_WITH_UNIT (LENGTH_MEASURE( 1.000000000000000082E-05 ), #36, 'distance_accuracy_value', 'NONE');
#32 = CARTESIAN_POINT ( 'NONE',  ( 8.768763455204716792E-15, 1.499999999999994005, 2.511473670974898376 ) ) ;
#33 = CC_DESIGN_PERSON_AND_ORGANIZATION_ASSIGNMENT ( #75, #58, ( #135 ) ) ;
#34 = CARTESIAN_POINT ( 'NONE',  ( 8.768763455204716792E-15, 1.124819836996388553E-32, 2.511473670974898376 ) ) ;
#35 = CARTESIAN_POINT ( 'NONE',  ( 1.316288464743861212E-13, 1.499999999999994005, 37.69999999999999574 ) ) ;
#36 =( LENGTH_UNIT ( ) NAMED_UNIT ( * ) SI_UNIT ( .MILLI., .METRE. ) );
#37 = ORIENTED_EDGE ( 'NONE', *, *, #70, .F. ) ;
#38 = APPROVAL_DATE_TIME ( #178, #130 ) ;
#39 = EDGE_LOOP ( 'NONE', ( #37 ) ) ;
#40 = COORDINATED_UNIVERSAL_TIME_OFFSET ( 1, 0, .AHEAD. ) ;
#41 = CARTESIAN_POINT ( 'NONE',  ( 0.0000000000000000000, 0.0000000000000000000, 0.0000000000000000000 ) ) ;
#42 = EDGE_LOOP ( 'NONE', ( #106 ) ) ;
#43 = AXIS2_PLACEMENT_3D ( 'NONE', #129, #131, #100 ) ;
#44 = DIRECTION ( 'NONE',  ( 3.491481338843133355E-15, -1.224646799147353207E-16, 1.000000000000000000 ) ) ;
#45 = LOCAL_TIME ( 9, 23, 35.00000000000000000, #74 ) ;
#46 = CC_DESIGN_PERSON_AND_ORGANIZATION_ASSIGNMENT ( #22, #143, ( #202 ) ) ;
#47 = DIRECTION ( 'NONE',  ( -3.491481338843133355E-15, 1.224646799147353207E-16, -1.000000000000000000 ) ) ;
#48 = FACE_OUTER_BOUND ( 'NONE', #184, .T. ) ;
#49 = VERTEX_POINT ( 'NONE', #148 ) ;
#50 = VERTEX_POINT ( 'NONE', #32 ) ;
#51 = APPROVAL_PERSON_ORGANIZATION ( #192, #130, #19 ) ;
#52 = CARTESIAN_POINT ( 'NONE',  ( -4.503835505927428864E-32, 1.579732841432790535E-33, -1.289949757377116289E-17 ) ) ;
#53 = APPROVAL_STATUS ( 'not_yet_approved' ) ;
#54 = COORDINATED_UNIVERSAL_TIME_OFFSET ( 1, 0, .AHEAD. ) ;
#55 = CIRCLE ( 'NONE', #132, 1.499999999999994227 ) ;
#56 = ORIENTED_EDGE ( 'NONE', *, *, #76, .F. ) ;
#57 = APPROVAL_PERSON_ORGANIZATION ( #71, #29, #23 ) ;
#58 = PERSON_AND_ORGANIZATION_ROLE ( 'design_owner' ) ;
#59 = CC_DESIGN_PERSON_AND_ORGANIZATION_ASSIGNMENT ( #164, #7, ( #116 ) ) ;
#60 = ORIENTED_EDGE ( 'NONE', *, *, #70, .T. ) ;
#61 = DATE_AND_TIME ( #198, #101 ) ;
#62 = PLANE ( 'NONE',  #169 ) ;
#63 = AXIS2_PLACEMENT_3D ( 'NONE', #172, #161, #203 ) ;
#64 = CIRCLE ( 'NONE', #10, 1.199999999999998845 ) ;
#65 = PLANE ( 'NONE',  #63 ) ;
#66 = APPLICATION_PROTOCOL_DEFINITION ( 'international standard', 'config_control_design', 1994, #114 ) ;
#67 = FACE_OUTER_BOUND ( 'NONE', #136, .T. ) ;
#68 = PERSON ( 'UNSPECIFIED', 'UNSPECIFIED', 'UNSPECIFIED', ('UNSPECIFIED'), ('UNSPECIFIED'), ('UNSPECIFIED') ) ;
#69 = VERTEX_POINT ( 'NONE', #35 ) ;
#70 = EDGE_CURVE ( 'NONE', #69, #69, #84, .T. ) ;
#71 = PERSON_AND_ORGANIZATION ( #68, #1 ) ;
#72 = ORIENTED_EDGE ( 'NONE', *, *, #111, .T. ) ;
#73 = PRODUCT_DEFINITION_SHAPE ( 'NONE', 'NONE',  #202 ) ;
#74 = COORDINATED_UNIVERSAL_TIME_OFFSET ( 1, 0, .AHEAD. ) ;
#75 = PERSON_AND_ORGANIZATION ( #68, #1 ) ;
#76 = EDGE_CURVE ( 'NONE', #86, #86, #30, .T. ) ;
#77 = CC_DESIGN_APPROVAL ( #126, ( #116 ) ) ;
#78 = SECURITY_CLASSIFICATION_LEVEL ( 'unclassified' ) ;
#79 = CARTESIAN_POINT ( 'NONE',  ( 8.768763455204716792E-15, -3.075668192302261928E-16, 2.511473670974898376 ) ) ;
#80 = LOCAL_TIME ( 9, 23, 35.00000000000000000, #118 ) ;
#81 = CARTESIAN_POINT ( 'NONE',  ( -2.251917752963714432E-32, 7.898664207163952676E-34, -6.449748786885581447E-18 ) ) ;
#82 = FACE_OUTER_BOUND ( 'NONE', #88, .T. ) ;
#83 =( NAMED_UNIT ( * ) SI_UNIT ( $, .STERADIAN. ) SOLID_ANGLE_UNIT ( ) );
#84 = CIRCLE ( 'NONE', #98, 1.499999999999998446 ) ;
#85 = DIRECTION ( 'NONE',  ( 3.491481338843133355E-15, -1.224646799147353207E-16, 1.000000000000000000 ) ) ;
#86 = VERTEX_POINT ( 'NONE', #99 ) ;
#87 = PERSON_AND_ORGANIZATION ( #68, #1 ) ;
#88 = EDGE_LOOP ( 'NONE', ( #60 ) ) ;
#89 = CALENDAR_DATE ( 2021, 24, 11 ) ;
#90 = CC_DESIGN_PERSON_AND_ORGANIZATION_ASSIGNMENT ( #183, #137, ( #146 ) ) ;
#91 = DATE_TIME_ROLE ( 'creation_date' ) ;
#92 = DATE_AND_TIME ( #185, #4 ) ;
#93 = CARTESIAN_POINT ( 'NONE',  ( 1.316288464743861212E-13, -4.616918432785521081E-15, 37.69999999999999574 ) ) ;
#94 = DIRECTION ( 'NONE',  ( 0.0000000000000000000, 1.000000000000000000, 0.0000000000000000000 ) ) ;
#95 = CC_DESIGN_PERSON_AND_ORGANIZATION_ASSIGNMENT ( #179, #8, ( #116 ) ) ;
#96 = DESIGN_CONTEXT ( 'detailed design', #157, 'design' ) ;
#97 = DIRECTION ( 'NONE',  ( -4.275831445896958607E-31, -1.000000000000000000, -1.224646799147353207E-16 ) ) ;
#98 = AXIS2_PLACEMENT_3D ( 'NONE', #93, #153, #9 ) ;
#99 = CARTESIAN_POINT ( 'NONE',  ( 8.768763455204716792E-15, 1.499999999999994005, 2.511473670974898376 ) ) ;
#100 = DIRECTION ( 'NONE',  ( 4.275831445896958607E-31, 1.000000000000000000, 1.224646799147352961E-16 ) ) ;
#101 = LOCAL_TIME ( 9, 23, 35.00000000000000000, #54 ) ;
#102 = ADVANCED_FACE ( 'NONE', ( #155, #117 ), #150, .T. ) ;
#103 = CARTESIAN_POINT ( 'NONE',  ( 8.768763455204716792E-15, -3.075668192302261928E-16, 2.511473670974898376 ) ) ;
#104 = APPROVAL_DATE_TIME ( #152, #126 ) ;
#105 = CLOSED_SHELL ( 'NONE', ( #177, #119, #102, #138 ) ) ;
#106 = ORIENTED_EDGE ( 'NONE', *, *, #76, .T. ) ;
#107 = DIRECTION ( 'NONE',  ( -3.491481338843133355E-15, 1.224646799147353207E-16, -1.000000000000000000 ) ) ;
#108 = EDGE_CURVE ( 'NONE', #158, #158, #64, .T. ) ;
#109 = AXIS2_PLACEMENT_3D ( 'NONE', #52, #47, #173 ) ;
#110 =( GEOMETRIC_REPRESENTATION_CONTEXT ( 3 ) GLOBAL_UNCERTAINTY_ASSIGNED_CONTEXT ( ( #31 ) ) GLOBAL_UNIT_ASSIGNED_CONTEXT ( ( #36, #175, #83 ) ) REPRESENTATION_CONTEXT ( 'NONE', 'WORKASPACE' ) );
#111 = EDGE_CURVE ( 'NONE', #49, #49, #180, .T. ) ;
#112 = DIRECTION ( 'NONE',  ( 3.491481338843133355E-15, -1.224646799147353207E-16, 1.000000000000000000 ) ) ;
#113 = FACE_OUTER_BOUND ( 'NONE', #139, .T. ) ;
#114 = APPLICATION_CONTEXT ( 'configuration controlled 3d designs of mechanical parts and assemblies' ) ;
#115 = AXIS2_PLACEMENT_3D ( 'NONE', #133, #17, #190 ) ;
#116 = PRODUCT_DEFINITION_FORMATION_WITH_SPECIFIED_SOURCE ( 'ANY', '', #135, .NOT_KNOWN. ) ;
#117 = FACE_BOUND ( 'NONE', #165, .T. ) ;
#118 = COORDINATED_UNIVERSAL_TIME_OFFSET ( 1, 0, .AHEAD. ) ;
#119 = ADVANCED_FACE ( 'NONE', ( #48, #82 ), #147, .T. ) ;
#120 = ORIENTED_EDGE ( 'NONE', *, *, #108, .T. ) ;
#121 = APPROVAL_STATUS ( 'not_yet_approved' ) ;
#122 = COORDINATED_UNIVERSAL_TIME_OFFSET ( 1, 0, .AHEAD. ) ;
#123 = ORIENTED_EDGE ( 'NONE', *, *, #108, .F. ) ;
#124 = MANIFOLD_SOLID_BREP ( 'Corps-Déplacer/Copier1[1]', #105 ) ;
#125 = CARTESIAN_POINT ( 'NONE',  ( 8.768763455204716792E-15, 1.124819836996388553E-32, 2.511473670974898376 ) ) ;
#126 = APPROVAL ( #196, 'UNSPECIFIED' ) ;
#127 = AXIS2_PLACEMENT_3D ( 'NONE', #79, #144, #94 ) ;
#128 = FACE_BOUND ( 'NONE', #182, .T. ) ;
#129 = CARTESIAN_POINT ( 'NONE',  ( 0.0000000000000000000, 0.0000000000000000000, 0.0000000000000000000 ) ) ;
#130 = APPROVAL ( #53, 'UNSPECIFIED' ) ;
#131 = DIRECTION ( 'NONE',  ( -3.491481338843133355E-15, 1.224646799147353207E-16, -1.000000000000000000 ) ) ;
#132 = AXIS2_PLACEMENT_3D ( 'NONE', #103, #107, #186 ) ;
#133 = CARTESIAN_POINT ( 'NONE',  ( 1.326762908760390423E-13, -4.653657836759941941E-15, 38.00000000000000000 ) ) ;
#134 = APPROVAL_ROLE ( '' ) ;
#135 = PRODUCT ( '43624', '43624', '', ( #168 ) ) ;
#136 = EDGE_LOOP ( 'NONE', ( #72 ) ) ;
#137 = PERSON_AND_ORGANIZATION_ROLE ( 'classification_officer' ) ;
#138 = ADVANCED_FACE ( 'NONE', ( #189 ), #65, .F. ) ;
#139 = EDGE_LOOP ( 'NONE', ( #197 ) ) ;
#140 = CALENDAR_DATE ( 2021, 24, 11 ) ;
#141 = ORIENTED_EDGE ( 'NONE', *, *, #24, .F. ) ;
#142 = APPROVAL_DATE_TIME ( #5, #29 ) ;
#143 = PERSON_AND_ORGANIZATION_ROLE ( 'creator' ) ;
#144 = DIRECTION ( 'NONE',  ( -3.491481338843133355E-15, 1.224646799147353207E-16, -1.000000000000000000 ) ) ;
#145 = CONICAL_SURFACE ( 'NONE', #174, 1.499999999999994227, 0.5235987755982925984 ) ;
#146 = SECURITY_CLASSIFICATION ( '', '', #78 ) ;
#147 = CYLINDRICAL_SURFACE ( 'NONE', #43, 1.499999999999996447 ) ;
#148 = CARTESIAN_POINT ( 'NONE',  ( -2.365919782978951148E-32, 0.04999999999999996114, -6.776263578034401942E-18 ) ) ;
#149 = DIRECTION ( 'NONE',  ( 0.0000000000000000000, -1.000000000000000000, 0.0000000000000000000 ) ) ;
#150 = CONICAL_SURFACE ( 'NONE', #115, 1.199999999999998845, 0.7853981633974450594 ) ;
#151 = SHAPE_DEFINITION_REPRESENTATION ( #73, #28 ) ;
#152 = DATE_AND_TIME ( #166, #27 ) ;
#153 = DIRECTION ( 'NONE',  ( -3.491481338843133355E-15, 1.224646799147353207E-16, -1.000000000000000000 ) ) ;
#154 = AXIS2_PLACEMENT_3D ( 'NONE', #81, #112, #160 ) ;
#155 = FACE_OUTER_BOUND ( 'NONE', #39, .T. ) ;
#156 = CC_DESIGN_DATE_AND_TIME_ASSIGNMENT ( #92, #91, ( #202 ) ) ;
#157 = APPLICATION_CONTEXT ( 'configuration controlled 3d designs of mechanical parts and assemblies' ) ;
#158 = VERTEX_POINT ( 'NONE', #14 ) ;
#159 = APPROVAL_PERSON_ORGANIZATION ( #87, #126, #134 ) ;
#160 = DIRECTION ( 'NONE',  ( -4.275831445896958607E-31, -1.000000000000000000, -1.224646799147353207E-16 ) ) ;
#161 = DIRECTION ( 'NONE',  ( -3.491481338843133355E-15, 1.224646799147353207E-16, -1.000000000000000000 ) ) ;
#162 = DATE_TIME_ROLE ( 'classification_date' ) ;
#163 = ADVANCED_FACE ( 'NONE', ( #128, #176 ), #145, .T. ) ;
#164 = PERSON_AND_ORGANIZATION ( #68, #1 ) ;
#165 = EDGE_LOOP ( 'NONE', ( #120 ) ) ;
#166 = CALENDAR_DATE ( 2021, 24, 11 ) ;
#167 = CC_DESIGN_DATE_AND_TIME_ASSIGNMENT ( #61, #162, ( #146 ) ) ;
#168 = MECHANICAL_CONTEXT ( 'NONE', #114, 'mechanical' ) ;
#169 = AXIS2_PLACEMENT_3D ( 'NONE', #125, #44, #25 ) ;
#170 = AXIS2_PLACEMENT_3D ( 'NONE', #41, #6, #21 ) ;
#171 = AXIS2_PLACEMENT_3D ( 'NONE', #34, #2, #97 ) ;
#172 = CARTESIAN_POINT ( 'NONE',  ( 1.326762908760390423E-13, 8.998558695971069014E-33, 38.00000000000000000 ) ) ;
#173 = DIRECTION ( 'NONE',  ( 4.275831445896958607E-31, 1.000000000000000000, 1.224646799147353207E-16 ) ) ;
#174 = AXIS2_PLACEMENT_3D ( 'NONE', #12, #85, #149 ) ;
#175 =( NAMED_UNIT ( * ) PLANE_ANGLE_UNIT ( ) SI_UNIT ( $, .RADIAN. ) );
#176 = FACE_OUTER_BOUND ( 'NONE', #42, .T. ) ;
#177 = ADVANCED_FACE ( 'NONE', ( #113 ), #3, .F. ) ;
#178 = DATE_AND_TIME ( #89, #80 ) ;
#179 = PERSON_AND_ORGANIZATION ( #68, #1 ) ;
#180 = CIRCLE ( 'NONE', #109, 0.04999999999999996114 ) ;
#181 = CC_DESIGN_APPROVAL ( #130, ( #146 ) ) ;
#182 = EDGE_LOOP ( 'NONE', ( #18 ) ) ;
#183 = PERSON_AND_ORGANIZATION ( #68, #1 ) ;
#184 = EDGE_LOOP ( 'NONE', ( #141 ) ) ;
#185 = CALENDAR_DATE ( 2021, 24, 11 ) ;
#186 = DIRECTION ( 'NONE',  ( 0.0000000000000000000, 1.000000000000000000, 0.0000000000000000000 ) ) ;
#187 = MANIFOLD_SOLID_BREP ( 'Corps-Déplacer/Copier1[2]', #11 ) ;
#188 = PLANE ( 'NONE',  #154 ) ;
#189 = FACE_OUTER_BOUND ( 'NONE', #195, .T. ) ;
#190 = DIRECTION ( 'NONE',  ( 0.0000000000000000000, 1.000000000000000000, 0.0000000000000000000 ) ) ;
#191 = CARTESIAN_POINT ( 'NONE',  ( 1.326762908760390423E-13, -4.653657836759941941E-15, 38.00000000000000000 ) ) ;
#192 = PERSON_AND_ORGANIZATION ( #68, #1 ) ;
#193 = EDGE_LOOP ( 'NONE', ( #56 ) ) ;
#194 = APPLICATION_PROTOCOL_DEFINITION ( 'international standard', 'config_control_design', 1994, #157 ) ;
#195 = EDGE_LOOP ( 'NONE', ( #123 ) ) ;
#196 = APPROVAL_STATUS ( 'not_yet_approved' ) ;
#197 = ORIENTED_EDGE ( 'NONE', *, *, #24, .T. ) ;
#198 = CALENDAR_DATE ( 2021, 24, 11 ) ;
#199 = FACE_OUTER_BOUND ( 'NONE', #193, .T. ) ;
#200 = ADVANCED_FACE ( 'NONE', ( #67 ), #188, .F. ) ;
#201 = CC_DESIGN_SECURITY_CLASSIFICATION ( #146, ( #116 ) ) ;
#202 = PRODUCT_DEFINITION ( 'UNKNOWN', '', #116, #96 ) ;
#203 = DIRECTION ( 'NONE',  ( 4.275831445896958607E-31, 1.000000000000000000, 1.224646799147353207E-16 ) ) ;
ENDSEC;
END-ISO-10303-21;
